>
 >
Tom Sawyer

Tom Sawyer Bass Tabs

Rush - Tom Sawyer chords, tabs, tablatures, lyrics

Guitar lessons | Add/correct | Request | Top 50 tabs Artists:  A B C D E F G H I J K L M N O P Q R S T U V W X Y Z 0-9

Tom Sawyer Bass Tabs – Rush

CD, Sheet music, Poster

Do you like Tom Sawyer? Share with your friends now
Bass TabsBass Tabs v2Bass Tabs v3ChordsDrum TabsTabsTabs v2Tabs v3Tabs v4Ukulele
-------------------------------------------------------------------------------
			    TOM SAWYER - Rush
-------------------------------------------------------------------------------


 Tuning: Standard EADG

 175 bmp

 G|-----------------------------------------------------------------|
 D|-----------------------------------------------------------------|
 A|-----------------------------------------------------------------|
 E|-0~--------------------------------------------------------------|
                                                                     
   -1-&-2-&-3-&-4-&-1-&-2-&-3-&-4-&-1-&-2-&-3-&-4-&-1-&-2-&-3-&-4-&-

 
 G|-----------------------------------------------------------------|
 D|-----------------------------------------------------------------|
 A|-----------------------------------------------------------------|
 E|-----------------------------------------------------------------|
                                                                     
   -1-&-2-&-3-&-4-&-1-&-2-&-3-&-4-&-1-&-2-&-3-&-4-&-1-&-2-&-3-&-4-&-


 00:10 and 00:22
 /
 |  G|-----------------------------------------------------------------|
 |  D|-----------------------------------------------------------------|
 |  A|---------7~------------------------------5~----------------------|
 |  E|-0-0---0-------------------------0-0---0-------------------------|
 |                                                                    
 |    -1-&-2-&-3-&-4-&-1-&-2-&-3-&-4-&-1-&-2-&-3-&-4-&-1-&-2-&-3-&-4-&-
 |
 |  G|-----------------------------------------------------------------|
 |  D|---------7~------------------------------10~---------------------|
 |  A|-----------------------------------------------------------------|
 |  E|-0-0---0-------------------------0-0---0-------------------------|
 |                                                                    
 |    -1-&-2-&-3-&-4-&-1-&-2-&-3-&-4-&-1-&-2-&-3-&-4-&-1-&-2-&-3-&-4-&-
 \ 
 			above section x2
 
 
 00:33
 G|-----------------------------------------------------------------|
 D|-10----9-----7-----10----9---7-----------------------------------|
 A|-----------------------------------------7\--------------9h10p9--|
 E|---------------------------------0-0---0-------0---0---0---------|
                                                                     
   -1-&-2-&-3-&-4-&-1-&-2-&-3-&-4-&-1-&-2-&-3-&-4-&-1-&-2-&-3-& -4-&-


 G|---------7---------7-----7---7-----------------------------------|
 D|-0-0---0-------0-------0---0-------------7---7-----7-----7---7---|
 A|---------------------------------0-0---0-------0-----0-0---0-----|
 E|-----------------------------------------------------------------|
                                                                     
   -1-&-2-&-3-&-4-&-1-&-2-&-3-&-4-&-1-&-2-&-3-&-4-&-1-&-2-&-3-&-4-&-

 
 G|------------------------------------------------------------------|
 D|-10----9-----7----------------------------------------------------|
 A|-------------------10----10-9-7-------------------------0---0---0-|
 E|----------------------------------0~----2~----0-2-3~----------3---|
                                                                     
   -1-&-2-&-3-&-4-&-1-&-2-&-3--&-4-&-1-&-2-&-3-&-4-&-1-&-2-&-3-&-4-&-

 00:49
 G|-----------------------------------------------------------------|
 D|-2~--------------------------------------------------------------|
 A|-------3~----0-3-2~----0~------------------------------0~--------|
 E|-----------------------------3-2-0~----2~--------3~--------------|
                                                                     
   -1-&-2-&-3-&-4-&-1-&-2-&-3-&-4-&-1-&-2-&-3-&-4-&-1-&-2-&-3-&-4-&-

 
 G|-----------------------------------------------------------------|
 D|-2~--------------------------------------------------------------|
 A|-------3~--------2~----0~------------------------------0~--------|
 E|-----------------------------3---0~----2~--------3~--------------|
                                                                     
   -1-&-2-&-3-&-4-&-1-&-2-&-3-&-4-&-1-&-2-&-3-&-4-&-1-&-2-&-3-&-4-&-

 
 G|-----------------------------------------------------------------|
 D|-2~--------------------------------------------------------------|
 A|-------3~--------2~----0~------------------------------0---0---0-|
 E|-----------------------------3-2-0~----2~----0-2-3~----------3---|
                                                                     
   -1-&-2-&-3-&-4-&-1-&-2-&-3-&-4-&-1-&-2-&-3-&-4-&-1-&-2-&-3-&-4-&-

 
 G|-----------------------------------------------------------------|
 D|-2~--------------------------------------------------------------|
 A|-------3~----0-3-2---2-0-----0---2~------------------------------|
 E|-------------------3---------------------------------------------|
                                                                     
   -1-&-2-&-3-&-4-&-1-&-2-&-3-&-4-&-1-&-2-&-3-&-4-&-1-&-2-&-3-&-4-&-

 
 01:11
 G|-----------------------------------------------------------------|
 D|-----------------------------------------------------------------|
 A|-2~------------------------------0~--------------------------2~--|
 E|-------------------------------------------------3~--------------|
                                                                     
   -1-&-2-&-3-&-4-&-1-&-2-&-3-&-4-&-1-&-2-&-3-&-4-&-1-&-2-&-3-&-4-&-

 
 G|-----------------------------------------------------------------|
 D|-----------------------------------------------------------------|
 A|-----------------0~------------------------------0~--------------|
 E|---------------------------------3~------------------------------|
                                                                     
   -1-&-2-&-3-&-4-&-1-&-2-&-3-&-4-&-1-&-2-&-3-&-4-&-1-&-2-&-3-&-4-&-

 01:22
 G|-----------------------------------------------------------------|
 D|-----------------------------------------------------------------|
 A|-----------------------------------------------------------------|
 E|-0~--------------------------------------------------------------|
                                                                     
   -1-&-2-&-3-&-4-&-1-&-2-&-3-&-4-&-1-&-2-&-3-&-4-&-1-&-2-&-3-&-4-&-




			     (Organ Solo)
		The timing gets funky here, it's easiest
		to think of the measures in pairs: 1 with
		4 beats then 1 with 3. That's how I have it
		shown below. Tempo does not change!

 01:57 and 02:07
 /
 |  G|---------------------------------------------------------|
 |  D|-7---6---0-----7~----6---0---7---6---0-----7~----6---0---|
 |  A|---9---7-----------9---7-------9---7-----------9---7-----|
 |  E|-----------7---------------7-----------7---------------7-|
 |                                                              
 |    -1-&-2-&-3-&-4-&-1-&-2-&-3-&-1-&-2-&-3-&-4-&-1-&-2-&-3-&-
 |  
 |  
 |  G|---------------------------------------------------------|
 |  D|-7---6---0-----7~----6---0---7---6---0-------------0~----|
 |  A|---9---7-----------9---7-------9---7-------0~------------|
 |  E|-----------7---------------7-----------7-------7~--------|
 |                                                            
 |    -1-&-2-&-3-&-4-&-1-&-2-&-3-&-1-&-2-&-3-&-4-&-1-&-2-&-3-&-
 \
			above section x2

 
 G|---------------------------------------------------------|
 D|-7---6---0-----7~----6---0---7---6---0-----7~----6---0---|
 A|---9---7-----------9---7-------9---7-----------9---7-----|
 E|-----------7---------------7-----------7---------------7-|
                                                             
   -1-&-2-&-3-&-4-&-1-&-2-&-3-&-1-&-2-&-3-&-4-&-1-&-2-&-3-&- 


 02:21
 G|-7---6---0-----7~----6---0---7---6---0-----7~----6---0---|
 D|---9---7-----------9---7-------9---7-----------9---7-----|
 A|-----------7---------------7-----------7---------------7-|
 E|---------------------------------------------------------|
                                                             
   -1-&-2-&-3-&-4-&-1-&-2-&-3-&-1-&-2-&-3-&-4-&-1-&-2-&-3-&-


 G|-------------------------------------------------------------|
 D|-7---6---0-----7~----6---0---7---6---0-------------0~--------|
 A|---9---7-----------9---7-------9---7-------0~----------7~----|
 E|-----------7---------------7-----------7-------7~------------|
                                                             
   -1-&-2-&-3-&-4-&-1-&-2-&-3-&-1-&-2-&-3-&-4-&-1-&-2-&-3-&-4-&- 
 
 
 02:31
 G|-----------------------------------------------------------------|
 D|-----------------------------------------------------------------|
 A|---------7~------------------------------5~----------------------|
 E|-0-0---0-------------------------0-0---0-------------------------|
                                                                   
   -1-&-2-&-3-&-4-&-1-&-2-&-3-&-4-&-1-&-2-&-3-&-4-&-1-&-2-&-3-&-4-&-

 
 G|-----------------------------------------------------------------|
 D|---------7~------------------------------10~---------------------|
 A|-------------------------------------------------3-----2-----0---|
 E|-0-0---0-------------------------0-0---0-------------------------|
                                                                   
   -1-&-2-&-3-&-4-&-1-&-2-&-3-&-4-&-1-&-2-&-3-&-4-&-1-&-2-&-3-&-4-&-
 

 02:42
 G|-----------------------------------------------------------------|
 D|-----------------------------------------------------------------|
 A|---------7~------------------------------5~----------------------|
 E|-0-0---0-------------------------0-0---0-------------------------|
                                                                   
   -1-&-2-&-3-&-4-&-1-&-2-&-3-&-4-&-1-&-2-&-3-&-4-&-1-&-2-&-3-&-4-&-

 
 G|-----------------------------------------------------------------|
 D|---------7~------------------------------10~-------------10--10--|
 A|-------------------------------------------------------7---7-----|
 E|-0-0---0-------------------------0-0---0-------------------------|
                                                                   
   -1-&-2-&-3-&-4-&-1-&-2-&-3-&-4-&-1-&-2-&-3-&-4-&-1-&-2-&-3-&-4-&-
 
 
 02:53
 G|-----------------------------------------------------------------|
 D|-10----9-----7-----10----9---7-----------------------------------|
 A|-----------------------------------------7\--------------9h10p9--|
 E|---------------------------------0-0---0-------0---0---0---------|
                                                                     
   -1-&-2-&-3-&-4-&-1-&-2-&-3-&-4-&-1-&-2-&-3-&-4-&-1-&-2-&-3-& -4-&-


 G|---------7---------7-----7---7-----------------------------------|
 D|-0-0---0-------0-------0---0-------------7---7-----7-----7---7---|
 A|---------------------------------0-0---00------0-----0-0---0---0-|
 E|-----------------------------------------------------------------|
                                                                     
   -1-&-2-&-3-&-4-&-1-&-2-&-3-&-4-&-1-&-2-&a3-&-4-&-1-&-2-&-3-&-4-&-

 
 03:04
 G|------------------------------------------------------------------|
 D|-10----9-----7----------------------------------------------------|
 A|-------------------10----10-9-7-------------------------0---0---0-|
 E|----------------------------------0~----2~----0-2-3~----------3---|
                                                                     
   -1-&-2-&-3-&-4-&-1-&-2-&-3--&-4-&-1-&-2-&-3-&-4-&-1-&-2-&-3-&-4-&-

 
 G|-----------------------------------------------------------------|
 D|-2~--------------------------------------------------------------|
 A|-------3~----0-3-2~----0~------------------------------0~--------|
 E|-----------------------------3-2-0~----2~--------3~--------------|
                                                                     
   -1-&-2-&-3-&-4-&-1-&-2-&-3-&-4-&-1-&-2-&-3-&-4-&-1-&-2-&-3-&-4-&-

 
 03:15
 G|-----------------------------------------------------------------|
 D|-2~--------------------------------------------------------------|
 A|-------3~--------2~----0~------------------------------0~--------|
 E|-----------------------------3---0~----2~--------3~--------------|
                                                                     
   -1-&-2-&-3-&-4-&-1-&-2-&-3-&-4-&-1-&-2-&-3-&-4-&-1-&-2-&-3-&-4-&-

 
 G|-----------------------------------------------------------------|
 D|-2~--------------------------------------------------------------|
 A|-------3~--------2~----0~------------------------------0---0---0-|
 E|-----------------------------3-2-0~----2~----0-2-3~----------3---|
                                                                     
   -1-&-2-&-3-&-4-&-1-&-2-&-3-&-4-&-1-&-2-&-3-&-4-&-1-&-2-&-3-&-4-&-

 
 G|-----------------------------------------------------------------|
 D|-2~--------------------------------------------------------------|
 A|-------3~----0-3-2---2-0---0---0-2~------------------------------|
 E|-------------------3---------------------------------------------|
                                                                     
   -1-&-2-&-3-&-4-&-1-&-2-&-3-&-4-&-1-&-2-&-3-&-4-&-1-&-2-&-3-&-4-&-

 
 03:32
 G|-----------------------------------------------------------------|
 D|-----------------------------------------------------------------|
 A|-2~------------------------------0~--------------------------2~--|
 E|-------------------------------------------------3~--------------|
                                                                     
   -1-&-2-&-3-&-4-&-1-&-2-&-3-&-4-&-1-&-2-&-3-&-4-&-1-&-2-&-3-&-4-&-

 
 G|-----------------------------------------------------------------|
 D|-----------------------------------------------------------------|
 A|-----------------0~------------------------------0~--------------|
 E|---------------------------------3~------------------------------|
                                                                     
   -1-&-2-&-3-&-4-&-1-&-2-&-3-&-4-&-1-&-2-&-3-&-4-&-1-&-2-&-3-&-4-&-

 
 03:43
 G|-----------------------------------------------------------------|
 D|-----------------------------------------------------------------|
 A|-----------------------------------------------------------------|
 E|-0~--------------------------------------------------------------|
                                                                     
   -1-&-2-&-3-&-4-&-1-&-2-&-3-&-4-&-1-&-2-&-3-&-4-&-1-&-2-&-3-&-4-&-


	repeat section below starting at 03:57 and fade out
 03:57
 G|---------------------------------------------------------|
 D|-------------------------4-------------------------------|
 A|---------------------4-----------------------------------|
 E|-0~------------2~----------------------------------------|
                                                                     
   -1-&-2-&-3-&-4-&-1-&-2-&-3-&-1-&-2-&-3-&-4-&-1-&-2-&-3-&-


 key
 ~	let ring
 /	slide up
 \	slide down
 h	hammer on
 p	pull off





Comments


Popular Rush tabs & chords
Bacchus Plateau 1 Bass Tabs
Good News First Bass Tabs
Neurotica Bass Tabs
New World Man 4 Bass Tabs
Subdivisions Bass Tabs
Yyz 3 Bass Tabs
2112 Soliloquy Tabs
Tears 1 Tabs
The Fountain Of Lamneth In The Valley 1 Tabs
Witch Hunt 1 Tabs


Song lyrics



↑ Back to top | Tablatures and chords are parodies/interpretations of the original songs. You may use it for private study, scholarship, research or language learning purposes only
© 2014 AZChords.com Contact us | Privacy policy | DMCA | Add/correct tabs | Request tabs | Top 50 tabs