>
 >
Just About Done

Just About Done Guitar Tabs

Rudy And Blitz - Just About Done chords, tabs, tablatures, lyrics

Guitar lessons | Add/correct | Request | Top 50 tabs Artists:  A B C D E F G H I J K L M N O P Q R S T U V W X Y Z 0-9

Just About Done Guitar Tabs – Rudy And Blitz

CD, Sheet music, Poster

Do you like Just About Done? Share with your friends now
Bass TabsTabs

Eb :----------------|----------------|
Bb :----------------|----------------|
Gb :----------------|----------------|
Db :8---------------|----------------|  guitar one
Ab :6---------------|8---------------|
Eb :----------------|6---------------|

Eb :----------------|----------------|
Bb :----------------|----------------|
Gb :----------------|----------------|  guitar 2
Db :----------------|----------------|
Ab :----------------|----------------|
Eb :----------------|----------------|

Gb :----------------|----------------|
Db :----------------|----------------|
Ab :----------------|----------------|   bass
Eb :----------------|----------------|

============================================================================

Eb :------------------|----------------|
Bb :------------------|----------------|
Gb :------------------|----------------|
Db :-----8------------|------8-8-------|
Ab :10--*6---10---6---|8-----6-6-------|
Eb :-8------*-8--*4--*|6---------------|

Eb :------------------|----------------|
Bb :------------------|----------------|
Gb :------------------|----------------|
Db :-----8------------|------8-8-------|
Ab :10--*6--*10---6---|8-----6-6-------|
Eb :-8------*-8--*4--*|6---------------|

Gb :------------------|----------------|
Db :------------------|----------------|
Ab :----*6------------|------6-6-------|
Eb :-8------*-8--*4--*|6---------------|

============================================================================

Eb :----------------|----------------|------------------|----------------|
Bb :----------------|----------------|------------------|----------------|
Gb :----------------|----------------|------------------|----------------|
Db :8-8-8-8-8-8-8-8-|----------------|-----8------------|------8-8-------|
Ab :6-6-6-6-6-6-6-6-|8-8-8-8-8-8-8---|10--*6---10---6---|8-----6-6-------|
Eb :----------------|6-6-6-6-6-6-6---|-8------*-8--*4--*|6---------------|

Eb :----------------|----------------|------------------|----------------|
Bb :----------------|----------------|------------------|----------------|
Gb :----------------|----------------|------------------|----------------|
Db :8-8-8-8-8-8-8-8-|----------------|-----8------------|------8-8-------|
Ab :6-6-6-6-6-6-6-6-|8-8-8-8-8-8-8---|10--*6--*10---6---|8-----6-6-------|
Eb :----------------|6-6-6-6-6-6-6---|-8------*-8--*4--*|6---------------|

Gb :----------------|----------------|------------------|----------------|
Db :----------------|----------------|------------------|----------------|
Ab :6-6-6-6-6-6-6-6-|----------------|----*6------------|------6-6-------|
Eb :----------------|6-6-6-6-6-6-6---|-8------*-8--*4--*|6---------------|

============================================================================

Eb :----------------|----------------|----------------|----------------|
Bb :----------------|----------------|----------------|----------------|
Gb :----------------|----------------|----------------|----------------|
Db :8-8-7-8---------|----------------|8-8-7-8---------|----------------|
Ab :6-6-5-6-8-8-8-8-|8-8-8-8-8-8-8-8-|6-6-5-6-8-8-8-8-|5-5-5-5-5-5-5-5-|
Eb :--------6-6-6-6-|6-6-6-6-6-6-6-6-|--------6-6-6-6-|3-3-3-3-3-3-3-3-|

Eb :----------------|----------------|----------------|----------------|
Bb :----------------|----------------|----------------|----------------|
Gb :----------------|----------------|----------------|----------------|
Db :8-8-7-8---------|----------------|8-8-7-8---------|----------------|
Ab :6-6-5-6-8-8-8-8-|8-8-8-8-8-8-8-8-|6-6-5-6-8-8-8-8-|5-5-5-5-5-5-5-5-|
Eb :--------6-6-6-6-|6-6-6-6-6-6-6-6-|--------6-6-6-6-|3-3-3-3-3-3-3-3-|

Gb :----------------|----------------|----------------|----------------|
Db :----------------|----------------|----------------|----------------|
Ab :6-6-5-6---------|----------------|6-6-5-6---------|----------------|
Eb :--------6-6-6-6-|6-6-6-6-6-6-6-6-|--------6-6-6-6-|3-3-3-3-3-3-3-3-|

============================================================================

Eb :----------------|----------------|----------------|----------------|
Bb :----------------|----------------|----------------|----------------|
Gb :----------------|----------------|----------------|----------------|
Db :8-8-7-8---------|----------------|8-8-7-8---------|----------------|
Ab :6-6-5-6-8-8-8-8-|8-8-8-8-8-8-8-8-|6-6-5-6-8-8-8-8-|5-5-5-5-5-5-5-5-|
Eb :--------6-6-6-6-|6-6-6-6-6-6-6-6-|--------6-6-6-6-|3-3-3-3-3-3-3-3-|

Eb :----------------|----------------|----------------|----------------|
Bb :----------------|----------------|----------------|----------------|
Gb :----------------|----------------|----------------|----------------|
Db :8-8-7-8---------|----------------|8-8-7-8---------|----------------|
Ab :6-6-5-6-8-8-8-8-|8-8-8-8-8-8-8-8-|6-6-5-6-8-8-8-8-|5-5-5-5-5-5-5-5-|
Eb :--------6-6-6-6-|6-6-6-6-6-6-6-6-|--------6-6-6-6-|3-3-3-3-3-3-3-3-|

Gb :----------------|----------------|----------------|----------------|
Db :----------------|----------------|----------------|----------------|
Ab :6-6-5-6---------|----------------|6-6-5-6---------|----------------|
Eb :--------6-6-6-6-|6-6-6-6-6-6-6-6-|--------6-6-6-6-|3-3-3-3-3-3-3-3-|

============================================================================

Eb :----------------|------------------------|----------------|
Bb :----------------|------------------------|----------------|
Gb :----------------|------------------------|----------------|
Db :------4---4-4-6-|6-------------9-----9---|------4---4-4-6-|
Ab :2-----2---2-2-4-|4-6-6-*-7-----7-----7---|2-----2---2-2-4-|
Eb :0---------------|--4-4-*-5---------------|0---------------|

Eb :----------------|------------------------|----------------|
Bb :----------------|------------------------|----------------|
Gb :----------------|------------------------|----------------|
Db :------4---4-4-6-|6-------------9-----9---|------4---4-4-6-|
Ab :2-----2---2-2-4-|4-6-6-*-7-----7-----7---|2-----2---2-2-4-|
Eb :0---------------|--4-4-*-5---------------|0---------------|

Gb :----------------|------------------------|----------------|
Db :----------------|------------------------|----------------|
Ab :----------------|--------------7-----7---|----------------|
Eb :0-----7---7-7-9-|9-4-4-*-5---------------|0-----7---7-7-9-|

============================================================================

Eb :----------------|----------------|----------------|----------------|
Bb :----------------|----------------|----------------|----------------|
Gb :----------------|----------------|----------------|----------------|
Db :6-------------9-|----9---------4-|--4-4-6-6-------|------9-----9---|
Ab :4-6-6-*-7-----7-|----7---2-----2-|--2-2-4-4-6-6-*-|7-----7-----7---|
Eb :--4-4-*-5-------|--------0-------|----------4-4-*-|5---------------|

Eb :----------------|----------------|----------------|----------------|
Bb :----------------|----------------|----------------|----------------|
Gb :----------------|----------------|----------------|----------------|
Db :6-------------9-|----9---------4-|--4-4-6-6-------|------9-----9---|
Ab :4-6-6-*-7-----7-|----7---2-----2-|--2-2-4-4-6-6-*-|7-----7-----7---|
Eb :--4-4-*-5-------|--------0-------|----------4-4-*-|5---------------|

Gb :----------------|----------------|----------------|----------------|
Db :----------------|----------------|----------------|----------------|
Ab :--------------7-|----7-----------|----------------|------7-----7---|
Eb :9-4-4-*-5-------|--------0-----7-|--7-7-9-9-4-4-*-|5---------------|

============================================================================

Eb :----------------|----------------|----------------|----------------|
Bb :----------------|----------------|----------------|----------------|
Gb :----------------|----------------|----------------|----------------|
Db :------4---4-4-6-|6-------------9-|----9---8-8-8-8-|8-8-8-8---------|
Ab :2-----2---2-2-4-|4-6-6-*-7-----7-|----7---6-6-6-6-|6-6-6-6-8-8-8-8-|
Eb :0---------------|--4-4-*-5-------|----------------|--------6-6-6-6-|

Eb :----------------|----------------|----------------|----------------|
Bb :----------------|----------------|----------------|----------------|
Gb :----------------|----------------|----------------|----------------|
Db :------4---4-4-6-|6-------------9-|----9---8-8-8-8-|8-8-8-8---------|
Ab :2-----2---2-2-4-|4-6-6-*-7-----7-|----7---6-6-6-6-|6-6-6-6-8-8-8-8-|
Eb :0---------------|--4-4-*-5-------|----------------|--------6-6-6-6-|

Gb :----------------|----------------|----------------|----------------|
Db :----------------|----------------|----------------|----------------|
Ab :----------------|--------------7-|----7---6-6-6-6-|6-6-6-6---------|
Eb :0-----7---7-7-9-|9-4-4-*-5-------|----------------|--------6-6-6-6-|

============================================================================

Eb :-----------------|-----------------|--------|
Bb :-----------------|-----------------|--------|
Gb :-----------------|-----------------|--------|
Db :-------------8---|---------------8-|8-------|
Ab :8-8-8-8-10--*6---|10---6---8-----6-|6-------|
Eb :6-6-6-6--8------*|-8--*4--*6-------|--------|

Eb :-----------------|-----------------|--------|
Bb :-----------------|-----------------|--------|
Gb :-----------------|-----------------|--------|
Db :-------------8---|---------------8-|8-------|
Ab :8-8-8-8-10--*6--*|10---6---8-----6-|6-------|
Eb :6-6-6-6--8------*|-8--*4--*6-------|--------|

Gb :-----------------|-----------------|--------|
Db :-----------------|-----------------|--------|
Ab :------------*6---|---------------6-|6-------|
Eb :6-6-6-6--8------*|-8--*4--*6-------|--------|

============================================================================

Eb :--------|----------------|-----------------|-----------------|--------|
Bb :--------|----------------|-----------------|-----------------|--------|
Gb :--------|----------------|-----------------|-----------------|--------|
Db :8-8-8-8-|8-8-8-8---------|-------------8---|---------------8-|8-------|
Ab :6-6-6-6-|6-6-6-6-8-8-8-8-|8-8-8-8-10--*6---|10---6---8-----6-|6-------|
Eb :--------|--------6-6-6-6-|6-6-6-6--8------*|-8--*4--*6-------|--------|

Eb :--------|----------------|-----------------|-----------------|--------|
Bb :--------|----------------|-----------------|-----------------|--------|
Gb :--------|----------------|-----------------|-----------------|--------|
Db :8-8-8-8-|8-8-8-8---------|-------------8---|---------------8-|8-------|
Ab :6-6-6-6-|6-6-6-6-8-8-8-8-|8-8-8-8-10--*6---|10---6---8-----6-|6-------|
Eb :--------|--------6-6-6-6-|6-6-6-6--8------*|-8--*4--*6-------|--------|

Gb :--------|----------------|-----------------|-----------------|--------|
Db :--------|----------------|-----------------|-----------------|--------|
Ab :6-6-6-6-|6-6-6-6---------|------------*6---|---------------6-|6-------|
Eb :--------|--------6-6-6-6-|6-6-6-6--8------*|-8--*4--*6-------|--------|

============================================================================

Eb :--------|----------------|----------------|----------------|
Bb :--------|----------------|----------------|----------------|
Gb :--------|----------------|----------------|----------------|
Db :8-8-7-8-|----------------|--------8-8-7-8-|----------------|
Ab :6-6-5-6-|8-8-8-8-8-8-8-8-|8-8-8-8-6-6-5-6-|8-8-8-8-5-5-5-5-|
Eb :--------|6-6-6-6-6-6-6-6-|6-6-6-6---------|6-6-6-6-3-3-3-3-|

Eb :--------|----------------|----------------|----------------|
Bb :--------|----------------|----------------|----------------|
Gb :--------|----------------|----------------|----------------|
Db :8-8-7-8-|----------------|--------8-8-7-8-|----------------|
Ab :6-6-5-6-|8-8-8-8-8-8-8-8-|8-8-8-8-6-6-5-6-|8-8-8-8-5-5-5-5-|
Eb :--------|6-6-6-6-6-6-6-6-|6-6-6-6---------|6-6-6-6-3-3-3-3-|

Gb :--------|----------------|----------------|----------------|
Db :--------|----------------|----------------|----------------|
Ab :6-6-5-6-|----------------|--------6-6-5-6-|----------------|
Eb :--------|6-6-6-6-6-6-6-6-|6-6-6-6---------|6-6-6-6-3-3-3-3-|

============================================================================

Eb :----------------|----------------|------------------------|
Bb :----------------|----------------|------------------------|
Gb :----------------|----------------|------------------------|
Db :--------8-8-7-8-|----------------|--------8-8-7-8---------|
Ab :5-5-5-5-6-6-5-6-|8-8-8-8-8-8-8-8-|8-8-8-8-6-6-5-6-8-8-8-8-|
Eb :3-3-3-3---------|6-6-6-6-6-6-6-6-|6-6-6-6---------6-6-6-6-|

Eb :----------------|----------------|------------------------|
Bb :----------------|----------------|------------------------|
Gb :----------------|----------------|------------------------|
Db :--------8-8-7-8-|----------------|--------8-8-7-8---------|
Ab :5-5-5-5-6-6-5-6-|8-8-8-8-8-8-8-8-|8-8-8-8-6-6-5-6-8-8-8-8-|
Eb :3-3-3-3---------|6-6-6-6-6-6-6-6-|6-6-6-6---------6-6-6-6-|

Gb :----------------|----------------|------------------------|
Db :----------------|----------------|------------------------|
Ab :--------6-6-5-6-|----------------|--------6-6-5-6---------|
Eb :3-3-3-3---------|6-6-6-6-6-6-6-6-|6-6-6-6---------6-6-6-6-|

============================================================================

Eb :----------------|
Bb :----------------|
Gb :----------------|
Db :----------------|
Ab :5-5-5-5-5-5-5-5-|
Eb :3-3-3-3-3-3-3-3-|

Eb :----------------|
Bb :----------------|
Gb :----------------|
Db :----------------|
Ab :5-5-5-5-5-5-5-5-|
Eb :3-3-3-3-3-3-3-3-|

Gb :----------------|
Db :----------------|
Ab :----------------|
Eb :3-3-3-3-3-3-3-3-|

============================================================================

Eb :----------------|----------------|----------------|----------------|
Bb :----------------|----------------|----------------|----------------|
Gb :----------------|----------------|----------------|----------------|
Db :------4---4-4-6-|6-------------9-|----9---------4-|--4-4-6-6-------|
Ab :2-----2---2-2-4-|4-6-6-*-7-----7-|----7---2-----2-|--2-2-4-4-6-6-*-|
Eb :0---------------|--4-4-*-5-------|--------0-------|----------4-4-*-|

Eb :----------------|----------------|----------------|----------------|
Bb :----------------|----------------|----------------|----------------|
Gb :----------------|----------------|----------------|----------------|
Db :------4---4-4-6-|6-------------9-|----9---------4-|--4-4-6-6-------|
Ab :2-----2---2-2-4-|4-6-6-*-7-----7-|----7---2-----2-|--2-2-4-4-6-6-*-|
Eb :0---------------|--4-4-*-5-------|--------0-------|----------4-4-*-|

Gb :----------------|----------------|----------------|----------------|
Db :----------------|----------------|----------------|----------------|
Ab :----------------|--------------7-|----7-----------|----------------|
Eb :0-----7---7-7-9-|9-4-4-*-5-------|--------0-----7-|--7-7-9-9-4-4-*-|

============================================================================

Eb :----------------|----------------|----------------|----------------|
Bb :----------------|----------------|----------------|----------------|
Gb :----------------|----------------|----------------|----------------|
Db :------9-----9---|------4---4-4-6-|6-------------9-|----9---------4-|
Ab :7-----7-----7---|2-----2---2-2-4-|4-6-6-*-7-----7-|----7---2-----2-|
Eb :5---------------|0---------------|--4-4-*-5-------|--------0-------|

Eb :----------------|----------------|----------------|----------------|
Bb :----------------|----------------|----------------|----------------|
Gb :----------------|----------------|----------------|----------------|
Db :------9-----9---|------4---4-4-6-|6-------------9-|----9---------4-|
Ab :7-----7-----7---|2-----2---2-2-4-|4-6-6-*-7-----7-|----7---2-----2-|
Eb :5---------------|0---------------|--4-4-*-5-------|--------0-------|

Gb :----------------|----------------|----------------|----------------|
Db :----------------|----------------|----------------|----------------|
Ab :------7-----7---|----------------|--------------7-|----7-----------|
Eb :5---------------|0-----7---7-7-9-|9-4-4-*-5-------|--------0-----7-|

============================================================================

Eb :----------------|----------------|
Bb :----------------|----------------|
Gb :----------------|----------------|
Db :--4-4-6-6-------|------9-----9---|
Ab :--2-2-4-4-6-6-*-|7-----7-----7---|
Eb :----------4-4-*-|5---------------|

Eb :----------------|----------------|
Bb :----------------|----------------|
Gb :----------------|----------------|
Db :--4-4-6-6-------|------9-----9---|
Ab :--2-2-4-4-6-6-*-|7-----7-----7---|
Eb :----------4-4-*-|5---------------|

Gb :----------------|----------------|
Db :----------------|----------------|
Ab :----------------|------7-----7---|
Eb :--7-7-9-9-4-4-*-|5---------------|

============================================================================

Eb :--------------------|------------------------|
Bb :--------------------|------------------------|
Gb :--------------------|------------------------|
Db :8-8-7-8-10-10-10-10-|10-10-10-10-10-10-10-10-|
Ab :6-6-5-6--8--8--8--8-|-8--8--8--8--8--8--8--8-|
Eb :--------------------|------------------------|

Eb :--------------------|------------------------|
Bb :--------------------|------------------------|
Gb :--------------------|------------------------|
Db :8-8-8-8--8--8--8--8-|-8--8--8--8--8--8--8--8-|
Ab :--------------------|------------------------|
Eb :--------------------|------------------------|

Gb :--------------------|------------------------|
Db :--------------------|------------------------|
Ab :6-6-5-6--8--8--8--8-|-8--8--8--8--8--8--8--8-|
Eb :--------------------|------------------------|

============================================================================

Eb :----------------------------|----------------|------------------------|
Bb :----------------------------|----------------|------------------------|
Gb :----------------------------|----------------|------------------------|
Db :8-8-7-8-10-10-10-10-7-7-7-7-|7-7-7-7-8-8-7-8-|10-10-10-10-10-10-10-10-|
Ab :6-6-5-6--8--8--8--8-5-5-5-5-|5-5-5-5-6-6-5-6-|-8--8--8--8--8--8--8--8-|
Eb :----------------------------|----------------|------------------------|

Eb :----------------------------|----------------|------------------------|
Bb :----------------------------|----------------|------------------------|
Gb :----------------------------|----------------|------------------------|
Db :8-8-8-8--8--8--8--8-8-8-8-8-|8-8-8-8-8-8-8-8-|-8--8--8--8--8--8--8--8-|
Ab :----------------------------|----------------|------------------------|
Eb :----------------------------|----------------|------------------------|

Gb :----------------------------|----------------|------------------------|
Db :----------------------------|----------------|------------------------|
Ab :6-6-5-6--8--8--8--8-5-5-5-5-|5-5-5-5-6-6-5-6-|-8--8--8--8--8--8--8--8-|
Eb :----------------------------|----------------|------------------------|

============================================================================

Eb :--------------------|--------------------|--------|
Bb :--------------------|--------------------|--------|
Gb :--------------------|--------------------|--------|
Db :10-10-10-10-8-8-7-8-|10-10-10-10-7-7-7-7-|7-7-7---|
Ab :-8--8--8--8-6-6-5-6-|-8--8--8--8-5-5-5-5-|5-5-5---|
Eb :--------------------|--------------------|--------|

Eb :--------------------|--------------------|--------|
Bb :--------------------|--------------------|--------|
Gb :--------------------|--------------------|--------|
Db :-8--8--8--8-8-8-8-8-|-8--8--8--8-8-8-8-8-|8-8-8---|
Ab :--------------------|--------------------|--------|
Eb :--------------------|--------------------|--------|

Gb :--------------------|--------------------|--------|
Db :--------------------|--------------------|--------|
Ab :-8--8--8--8-6-6-5-6-|-8--8--8--8-5-5-5-5-|5-5-5---|
Eb :--------------------|--------------------|--------|

============================================================================

Eb :--------|----------------|----------------|----------------|
Bb :--------|----------------|----------------|----------------|
Gb :--------|----------------|----------------|----------------|
Db :------4-|--4-4-6-6-------|------9-----9---|------4---4-4-6-|
Ab :2-----2-|--2-2-4-4-6-6-*-|7-----7-----7---|2-----2---2-2-4-|
Eb :0-------|----------4-4-*-|5---------------|0---------------|

Eb :--------|----------------|----------------|----------------|
Bb :--------|----------------|----------------|----------------|
Gb :--------|----------------|----------------|----------------|
Db :------4-|--4-4-6-6-------|------9-----9---|------4---4-4-6-|
Ab :2-----2-|--2-2-4-4-6-6-*-|7-----7-----7---|2-----2---2-2-4-|
Eb :0-------|----------4-4-*-|5---------------|0---------------|

Gb :--------|----------------|----------------|----------------|
Db :--------|----------------|----------------|----------------|
Ab :--------|----------------|------7-----7---|----------------|
Eb :0-----7-|--7-7-9-9-4-4-*-|5---------------|0-----7---7-7-9-|

============================================================================

Eb :----------------|----------------|----------------|----------------|
Bb :----------------|----------------|----------------|----------------|
Gb :----------------|----------------|----------------|----------------|
Db :6-------------9-|----9---------4-|--4-4-6-6-------|------9-----9---|
Ab :4-6-6-*-7-----7-|----7---2-----2-|--2-2-4-4-6-6-*-|7-----7-----7---|
Eb :--4-4-*-5-------|--------0-------|----------4-4-*-|5---------------|

Eb :----------------|----------------|----------------|----------------|
Bb :----------------|----------------|----------------|----------------|
Gb :----------------|----------------|----------------|----------------|
Db :6-------------9-|----9---------4-|--4-4-6-6-------|------9-----9---|
Ab :4-6-6-*-7-----7-|----7---2-----2-|--2-2-4-4-6-6-*-|7-----7-----7---|
Eb :--4-4-*-5-------|--------0-------|----------4-4-*-|5---------------|

Gb :----------------|----------------|----------------|----------------|
Db :----------------|----------------|----------------|----------------|
Ab :--------------7-|----7-----------|----------------|------7-----7---|
Eb :9-4-4-*-5-------|--------0-----7-|--7-7-9-9-4-4-*-|5---------------|

============================================================================

Eb :----------------|----------------|----------------|----------------|
Bb :----------------|----------------|----------------|----------------|
Gb :----------------|----------------|----------------|----------------|
Db :------4---4-4-6-|6-------------9-|----9---8-8-8-8-|8-8-8-8---------|
Ab :2-----2---2-2-4-|4-6-6-*-7-----7-|----7---6-6-6-6-|6-6-6-6-8-8-8-8-|
Eb :0---------------|--4-4-*-5-------|----------------|--------6-6-6-6-|

Eb :----------------|----------------|----------------|----------------|
Bb :----------------|----------------|----------------|----------------|
Gb :----------------|----------------|----------------|----------------|
Db :------4---4-4-6-|6-------------9-|----9---8-8-8-8-|8-8-8-8---------|
Ab :2-----2---2-2-4-|4-6-6-*-7-----7-|----7---6-6-6-6-|6-6-6-6-8-8-8-8-|
Eb :0---------------|--4-4-*-5-------|----------------|--------6-6-6-6-|

Gb :----------------|----------------|----------------|----------------|
Db :----------------|----------------|----------------|----------------|
Ab :----------------|--------------7-|----7---6-6-6-6-|6-6-6-6---------|
Eb :0-----7---7-7-9-|9-4-4-*-5-------|----------------|--------6-6-6-6-|

============================================================================

Eb :-----------------|-----------------|------------------|
Bb :-----------------|-----------------|------------------|
Gb :-----------------|-----------------|------------------|
Db :-------------8---|---------------8-|8------8------8---|
Ab :8-8-8-8-10--*6---|10---6---8-----6-|6------6------6---|
Eb :6-6-6-6--8------*|-8--*4--*6-------|------------------|

Eb :-----------------|-----------------|------------------|
Bb :-----------------|-----------------|------------------|
Gb :-----------------|-----------------|------------------|
Db :-------------8---|---------------8-|8-----------------|
Ab :8-8-8-8-10--*6---|10---6---8-----6-|6-----------------|
Eb :6-6-6-6--8------*|-8--*4--*6-------|------------------|

Gb :-----------------|-----------------|------------------|
Db :-----------------|-----------------|------------------|
Ab :------------*6---|---------------6-|6------6------6---|
Eb :6-6-6-6--8------*|-8--*4--*6-------|------------------|

============================================================================

Eb :-----------------|----------------|----------------|
Bb :-----------------|----------------|----------------|
Gb :-----------------|----------------|----------------|
Db :---8-8-----------|----------------|--------8-8-----|
Ab :---6-6-----------|----------------|--------6-6-*---|
Eb :-----------------|----------------|----------------|

Eb :-----------------|----------------|----------------|
Bb :-----------------|----------------|----------------|
Gb :-----------------|----------------|----------------|
Db :-----------------|----------------|--------8-8-----|
Ab :-----------------|----------------|--------6-6-*---|
Eb :-----------------|----------------|----------------|

Gb :-----------------|----------------|----------------|
Db :-----------------|----------------|----------------|
Ab :---6-6-----------|----------------|--------6-6-*---|
Eb :-----------------|----------------|----------------|





Comments


Popular Rudy And Blitz tabs & chords
Just About Done Bass Tabs
Turtle Frown Bass Tabs
Type Of Thing Bass Tabs
Be A Loaf Tabs
Lucky Me Tabs
Shes So Brown Tabs
Teach Tabs
Thanks Anyway Tabs
Type Of Thing 1 Tabs
Used It All Up Tabs


Song lyrics



↑ Back to top | Tablatures and chords are parodies/interpretations of the original songs. You may use it for private study, scholarship, research or language learning purposes only
© 2014 AZChords.com Contact us | Privacy policy | DMCA | Add/correct tabs | Request tabs | Top 50 tabs