» » »

Rudy And Blitz, Just About Done Bass tabs (ver.1)

Artists:  A B C D E F G H I J K L M N O P Q R S T U V W X Y Z # 

Just About Done Bass tabs (ver.1)

Rudy And Blitz Tabs
Rating:
0/5 (0 votes)
Just About Done lessons Tabs too difficult? Try these video lessons and learn fast
                Rudy & Blitz
"Just About Done"
Reverb on the Click
Tuning: Half Step Down - Eb Ab Db Gb


Intro - Just guitar

"Get me the hell"   | "Out of here"
Gb:-----------------|----------|
Db:-----------------|----------|
Ab:------6*---------|-----6-6--|
Eb:--8*-----8*--4*--|--6-------|

"I'm all outa fun, it aint your problem, nah."
Gb:-----------------------|
Db:-----------------------|
Ab:--6666-6666------------|
Eb:------------6666-6666--|

"Who needs me? Not" | "Aaaanyone"
Gb:-----------------|----------|
Db:-----------------|----------|
Ab:------6*---------|-----6-6--|
Eb:--8*-----8*--4*--|--6-------|

"Better off, off myself"    | "By myself, I'm better off"
Gb:-------------------------|------------------------|
Db:-------------------------|------------------------|
Ab:--66-x-6-----------------|--66-x-6----------------|
Eb:---------66--6-6--66666--|---------66--6-3-33333--|

Chorus - Very quick little hammer on/slide.
"Instead he drained.. "  | "Some week"
Gb:----------------------|-----------------|
Db:----------------------|-------2--2-2-2--|
Ab:------2-2--2h4-4------|--0--0-----------|
Eb:--0-0------------4-4--|-----------------|

Guitar Solo
Gb:-------------------------|------------------------|
Db:-------------------------|------------------------|
Ab:--66---6-8888-8888-8888--|-66---6-8888-8555-5555--|
Eb:-----6-------------------|----6-------------------|
            

comments powered by Disqus
↑ Back to top | Rudy And Blitz Bass for Just About Done. Lyrics for acoustic guitar and electric guitar. Tablatures and chords are parodies/interpretations of the original songs. You may use it for private study, scholarship, research or language learning purposes only