» » »

Roxy Music, More Than This Chords (ver.1)

Artists:  A B C D E F G H I J K L M N O P Q R S T U V W X Y Z # 

More Than This Chords (ver.1)

Roxy Music Tabs
 Rating:
4/5 (9 votes)
More Than This lessons Tabs too difficult? Try these video lessons and learn fast
                ---------------------------------------------------------------------------
---------------------------------------------------------------------------
Tuning: Standard

Roxy Music
More Than This (1982)
(Bryan Ferry)



---------------------------------------------------------------------------
CHORDS

          e-B-G-D-A-E
Csus4     1-1-0-3-3-x
Gsus4     3-1-0-0-x-3
Bbsus2    1-1-3-3-1-x
C*        3-1-0-2-3-x
Bb6       3-3-3-3-1-x

---------------------------------------------------------------------------
Capo 1st fret

INTRO
  C                                 Csus4
e|----------------|----------------|----------------|----------------|
B|5-----------5---|--------5-------|5-----------5---|--------5-------|
G|------5---------|--5---------5---|------5---------|--5---------5---|
D|----------------|----------------|----------------|----------------|
A|----------------|----------------|----------------|----------------|
E|----------------|----------------|----------------|----------------|
  C
e|----------------|----------------|----------------|----------------|
B|5-----------5---|--------5-------|5-----------5---|--------5-------|
G|------5---------|--5---------5---|------5---------|--5---------5---|
D|----------------|----------------|----------------|----------------|
A|----------------|----------------|----------------|----------------|
E|----------------|----------------|----------------|----------------|

CODA
  F                Bb               Gsus4            C
e|----------------|----------------|----------------|----------------|
B|5-----------5---|----------------|5-----------5---|----------------|
G|------5---------|----------------|------5---------|5---------------|
D|----------------|----------------|----------------|----------------|
A|----------------|----------------|----------------|----------------|
E|----------------|----------------|----------------|----------------|


---------------------------------------------------------------------------

Capo 1st fret


INTRO
| C | % | Csus4 | % | 
| C | % | % | % |

        F           Bb
I could feel at the time
          Gsus4     C
There was no way of knowing
        F            Bb
Fallen leaves in the night
        Gsus4             C
Who can say where they´re blowing
   F           Bb
As free as the wind
Gsus4       C
  Hopefully learning
        F          Bb
Why the sea on the tide
    Gsus4     C
Has no way of turning

          F               Bbsus2
More than this - there is nothing
          F              Bbsus2
More than this - tell me one thing
          F                     Bbsus2
More than this – oooh, there is nothing

| C | *C | Bb | Bb6 |


       F         Bb
It was fun for a while
          Gsus4     C
There was no way of knowing
       F            Bb
Like a dream in the night
        Gsus4           C
Who can say where we´re going
   F       Bb
No care in the world
Gsus4       C
  Maybe I´m learning
        F      Bb
Why the sea on the tide
    Gsus4     C
Has no way of turning


          F               Bbsus2
More than this - there is nothing
          F              Bbsus2
More than this - tell me one thing
          F                     Bbsus2
More than this – oooh, there is nothing

| C | *C | Bb | Bb6 |

          F      Bbsus2
More than this - nothing
          F         Bbsus2
More than this ... 
          F      Bbsus2
More than this - nothing

| C | *C | Bb | Bb6 |

OUTRO
| F | Bb | Gsus4 | C | 
| F | Bb | Gsus4 | C | 
(repeat and fade)
            
Submit corrections

comments powered by Disqus
↑ Back to top | Roxy Music Chords for More Than This. Lyrics for acoustic guitar and electric guitar. Tablatures and chords are parodies/interpretations of the original songs. You may use it for private study, scholarship, research or language learning purposes only