>
 >
White And Gold

White And Gold Guitar Tabs

Roses Are Red - White And Gold chords, tabs, tablatures, lyrics

Guitar lessons | Add/correct | Request | Top 50 tabs Artists:  A B C D E F G H I J K L M N O P Q R S T U V W X Y Z 0-9

White And Gold Guitar Tabs – Roses Are Red

CD, Sheet music, Poster

Do you like White And Gold? Share with your friends now
Bass TabsTabs
-------------------------------------------------------------------------------
-------------------------------------------------------------------------------

Tuning: standard

Intro - lead
e|---------------------------------------------------------------------------|
B|---------10--10-10---------10--10-10---------11--11-11-----11----11p10-----|
G|--10-10-------------10-10-------------10-10-------------10----10-----------|
D|---------------------------------------------------------------------------|
A|---------------------------------------------------------------------------|
E|---------------------------------------------------------------------------|

e|--------------------------------------8-8----------------------------------|
B|---------10--10-10---------10--10-10------8-10-----------------------------|
G|--10-10-------------10-10----------------------9--9-9-99-------------------|
D|---------------------------------------------------------------------------|
A|---------------------------------------------------------------------------|
E|---------------------------------------------------------------------------|
Intro - Rythm
e|---------------------------------------------------------------------------|
B|---------------------------------------------------------------------------|
G|-7--77-77--7--77-77----3--33-33--3--33-33----7--77-77--7--77-77------------|
D|-7--77-77--7--77-77----3--33-33--3--33-33----7--77-77--7--77-77------------|
A|-5--55-55--5--55-55----1--11-11--1--11-11----5--55-55--5--55-55------------|
E|---------------------------------------------------------------------------|

e|---------------------------------------------------------------------------|
B|---------------------------------------------------------------------------|
G|-3--33-33--5--55-55--------------------------------------------------------|
D|-3--33-33--5--55-55--------------------------------------------------------|
A|-1--11-11--3--33-33--------------------------------------------------------|
E|---------------------------------------------------------------------------|
Verse       (Downstroke) 
e|----------Strumming-pattern-not-shown--------------------------------------|
B|---------------------------------------------------------------------------|
G|-7--77777-7--3-33333-3--5-55555--5-22222--2-3-33333-5----------------------|
D|-7--77777-7--3-33333-3--5-55555--5-22222--2-3-33333-5----------------------|
A|-5--55555-5--1-11111-1--3-33333--3-00000--0-1-11111-3----------------------|
E|---------------------------------------------------------------------------|
      .....      .....      .....    .....      .....
e|---------------------------------------------------------------------------|
B|---------------------------------------------------------------------------|
G|-7--77777-7--3-33333-3--5-55555--5-2-22222--77-55--------------------------|
D|-7--77777-7--3-33333-3--5-55555--5-2-22222--77-55--------------------------|
A|-5--55555-5--1-11111-1--3-33333--3-0-00000--55-33--------------------------|
E|---------------------------------------------------------------------------|
Pre-Chorus-Lead                                                  
e|---88------88------88-----88------88------88-----88-----88------88---------|
B|--6--66---6--66--66------6--66---6--66--66------6--66--6--66--66-----------|
G|---------------------------------------------------------------------------|
D|---------------------------------------------------------------------------|
A|---------------------------------------------------------------------------|
E|---------------------------------------------------------------------------|

e|---------------------------------------------------------------------------|
B|-55668855--55668855--------------------------------------------------------|
G|---------------------------------------------------------------------------|
D|---------------------------------------------------------------------------|
A|---------------------------------------------------------------------------|
E|---------------------------------------------------------------------------|
Pre-Chorus-Rythm
e|---------------------------------------------------------------------------|
B|---------------------------------------------------------------------------|
G|-33333333---33333---77777777---77777---33333333---33333--------------------|
D|-33333333---33333---77777777---77777---33333333---33333---55555555---77777-|
A|-11111111---11111---55555555---55555---11111111---11111---55555555---77777-|
E|----------------------------------------------------------33333333---55555-|

e|---------------------------------------------------------------------------|
B|---------------------------------------------------------------------------|
G|-33333333---33333---77777777---77777------88888888---33333333--------------|
D|-33333333---33333---77777777---77777------88888888---33333333---pick slid--|
A|-11111111---11111---55555555---55555------66666666---11111111--------------|
E|---------------------------------------------------------------------------|
Chorus (play intro twice)
Verse 2 - There is no guitar in the first part of the second verse.. it should look like this

e|---------------------------------------------------------------------------|
B|---------------------------------------------------------------------------|
G|---------------------------------------------------------------------------|
D|---------------------------------------------------------------------------|
A|---------------------------------------------------------------------------|
E|---------------------------------------------------------------------------|

e|---------------------------------------------------------------------------|
B|---------------------------------------------------------------------------|
G|-7--77777-7--3-33333-3--5-55555--5-2-22222--77-55--------------------------|
D|-7--77777-7--3-33333-3--5-55555--5-2-22222--77-55--------------------------|
A|-5--55555-5--1-11111-1--3-33333--3-0-00000--55-33--------------------------|
E|---------------------------------------------------------------------------|
Pre-chorus (play first pre-chorus) 
Chorus

INterlude
e|---------------------------------------------------------------------------|
B|-3~------------------------------------------------------------------------|
G|-5~--7-7777-77777--7/8--10101010-1010101010--10/11--14141414--1414141414---|
D|-5~--x-xxxx-xxxxx--x-x---x-x-x-x--x-x-x-x-x---x-x----x-x-x-x---x-x-x-x-x---|
A|-3~--5-5555-55555--5/6---8-8-8-8--8-8-8-8-8---8/9---12121212--1212121212---|
E|---------------------------------------------------------------------------|


e|---------------------------------------------------------------------------|
B|---------------------------------------------------------------------------|
G|-14/15--12-1212-12-1212--55-55---------------------------------------------|
D|--x--x---x--x-x--x--x-x--xx-xx---------------------------------------------|
A|-12/13--10-1010-10-1010--33-33---------------------------------------------|
E|---------------------------------------------------------------------------|

e|---------------------------------------------------------------------------|
B|---------------------------------------------------------------------------|
G|--7-7777-77777--7/8--10101010-1010101010--10/11--14141414--1414141414------|
D|--x-xxxx-xxxxx--x-x---x-x-x-x--x-x-x-x-x---x-x----x-x-x-x---x-x-x-x-x------|
A|--5-5555-55555--5/6---8-8-8-8--8-8-8-8-8---8/9---12121212--1212121212------|
E|---------------------------------------------------------------------------|

e|---------------------------------------------------------------------------|
B|---------------------------------------------------------------------------|
G|-14/15--12-1212-12-1212----------------------------------------------------|
D|--x--x---x--x-x--x--x-x----pick-slide--------------------------------------|
A|-12/13--10-1010-10-1010----------------------------------------------------|
E|---------------------------------------------------------------------------|

Ending
PLay INtro/chorus twice

End On
e|---------------------------------------------------------------------------|
B|---------------------------------------------------------------------------|
G|--5-55555555--7s0----------------------------------------------------------|
D|--5-55555555--7s0----------------------------------------------------------|
A|--3-33333333--5s0----------------------------------------------------------|
E|---------------------------------------------------------------------------|




| /  slide up
| \  slide down
| h  hammer-on
| p  pull-off
| ~  let ring
| +  harmonic
| x  Mute note
  s  slide
===============================================================================





Comments


Popular Roses Are Red tabs & chords
White And Gold Bass Tabs
300 Motion Pictures Tabs
Last Christmas Tabs
Last Christmas 1 Tabs
What Became Of Me Tabs


Song lyrics



↑ Back to top | Tablatures and chords are parodies/interpretations of the original songs. You may use it for private study, scholarship, research or language learning purposes only
© 2014 AZChords.com Contact us | Privacy policy | DMCA | Add/correct tabs | Request tabs | Top 50 tabs