» » »

White And Gold Bass tabs (ver.1)

Artists:  A B C D E F G H I J K L M N O P Q R S T U V W X Y Z # 

White And Gold Bass tabs (ver.1)

Roses Are Red
Rating:
0/5 (0 votes)

Hard to play? Try these video lessons and learn fast.
                 this is my first tab here, well it's an easy song to play.



Intro.
G-|----------|-------------------------------------------------|
D-|----------|-------------------------------------------------| 
A-|pick-sl.1X|-5-555-5-555-1-111-1-111-5-555-5-555-1-111\33333-|2X
E-|----------|-------------------------------------------------|

verse. folow the rhythim
G-|------------------------------------------------------------|
D-|------------------------------------------------------------|
A-|5-555555-5-1-111111-1-3-333333-3-0-00000000-0-3\5-----------|
E-|------------------------------------------------------------|

G-|------------------------------------------------------------|
D-|------------------------------------------------------------|
A-|5-555555-5-1-111111-1-3-333333-3-0-00000000-0-55-333--------|
E-|------------------------------------------------------------|

pre-chorus.
G-|------------------------------------------------------------|
D-|------------------------------------------------------------|
A-|1-111-1-111\5-555-5-5555/1-111-1-111------------------------|
E-|------------------------------------333333-5555555----------|

G-|------------------------------------------------------------|
D-|------------------------------------------------------------|
A-|1-111-1-111\5-555-5-555-6-666-6-666/1111111---pick-sl.------|
E-|------------------------------------------------------------|

chorus.
G-|------------------------------------------------------------|
D-|------------------------------------------------------------| 
A-|-5-555-5-555-1-111-1-111-5-555-5-555-1-111\33333------------|1X
E-|------------------------------------------------------------|


verse. 
G-|------------------------------------------------------------|
D-|------------------------------------------------------------|
A-|5-555555-5-1-111111-1-3-333333-3-0-00000000-0-3\5-----------|
E-|------------------------------------------------------------|

G-|------------------------------------------------------------|
D-|------------------------------------------------------------|
A-|5-555555-5-1-111111-1-3-333333-3-0-00000000-0-55-333--------|
E-|------------------------------------------------------------|

pre-chorus.
G-|------------------------------------------------------------|
D-|------------------------------------------------------------|
A-|1-111-1-111\5-555-5-5555/1-111-1-111------------------------|
E-|------------------------------------333333-5555555----------|

G-|------------------------------------------------------------|
D-|------------------------------------------------------------|
A-|1-111-1-111\5-555-5-555-6-666-6-666/1111111---pick-sl.------|
E-|------------------------------------------------------------|

chorus.
G-|------------------------------------------------------------|
D-|------------------------------------------------------------| 
A-|-5-555-5-555-1-111-1-111-5-555-5-555-1-111\33333------------|2X
E-|------------------------------------------------------------|

other. little rest before doing.

G-|----------------------------------------------------------------|
D-|----------------------------------------------------------------| 
A-|3~~5-55-55-55-5h7/8-88-88-88-8h9/12-1212121212/13\10101010-33333|
E-|----------------------------------------------------------------|

G-|--------------------------------------------------------------------|
D-|--------------------------------------------------------------------| 
A-|3~~5-55-55-55-5h7/8-88-88-88-8h9/12-1212121212/13\10101010\-pick-sl.|
E-|--------------------------------------------------------------------|

last part = chorus 2x + ending

G-|------------------------------------------------------------|
D-|------------------------------------------------------------| 
A-|-5-555-5-555-1-111-1-111-5-555-5-555-1-111\33333------------|2X
E-|------------------------------------------------------------|
 
G-|------------------------------------------------------------|
D-|------------------------------------------------------------| 
A-|-33333333-3-5~~~~-------------------------------------------|
E-|------------------------------------------------------------|


obs: there's the pick slide of the lead guitar, that comes first.
     the bass do it, with the rhythim guitar usually the second pick slide.

that's it hope you like
            
Hard to play? Try these video lessons and learn fast. | Correct




comments powered by Disqus
↑ Back to top | Tablatures and chords are parodies/interpretations of the original songs. You may use it for private study, scholarship, research or language learning purposes only