» » »

Ron Pope, I Wont Fall Apart Tabs (ver.1)

Artists:  A B C D E F G H I J K L M N O P Q R S T U V W X Y Z # 

I Wont Fall Apart Tabs (ver.1)

Ron Pope Tabs
 Rating:
4/5 (4 votes)
I Wont Fall Apart lessons Tabs too difficult? Try these video lessons and learn fast
                (Intro)
-------------------------------------------------------------------------------
                             I won't fall apart- The district
-------------------------------------------------------------------------------

Tuning:Standard (capo 1)

e|--------------------------------------------------------------------------|
B|--------------------------------------------------------------------------|
G|------------0h2--2-2\3-2--2-----------------------------------------------|
D|-------0h2----------------2------0h2-2-4-2--------------------------------|
A|------0------------------------0-------------4----------------------------|
E|-5------------------------------------------------5-----------------------|

The makes up most of the song but im not sure about the chorus


| /  slide up
| \  slide down
| h  hammer-on
| p  pull-off
| ~  vibrato
| +  harmonic
| x  Mute note
===============================================================================
            
Submit corrections

comments powered by Disqus
↑ Back to top | Ron Pope Tabs for I Wont Fall Apart. Lyrics for acoustic guitar and electric guitar. Tablatures and chords are parodies/interpretations of the original songs. You may use it for private study, scholarship, research or language learning purposes only