» » »

The Spider And The Fly Tabs (ver.2)

Artists:  A B C D E F G H I J K L M N O P Q R S T U V W X Y Z # 

The Spider And The Fly Tabs (ver.2)

Rolling Stones
Rating:
0/5 (0 votes)
Tabs too difficult? Try these video lessons and learn fast.
                The Spider and the Fly - Fingerpicking version
The Rolling Stones - loosely based on the version recorded on the 
"Stripped" album - 

Tuning : E A D G B E    Time Signature: 4/4          Around 90 BPM

 E7 Verse        |       |        |       |       |       |        
|--------------------------------|--------------------------------|
|----0---------------0-----------|----0---------------0-----------|
0H1-------------0H1--------------0H1-------------0H1--------------|
|------------2---------------2---|------------2---------------2---|
|--------2---------------2-------|--------2---------------2-------|
|0---------------0---------------|0---------------0---------------|

 |       |       |       |        |       |       |       |        
|--------------------------------|--------------------------------|
|0---0---0---0---0---------------|--------------------------------|
|------------------------2-------|1-----------1-------------------|
|--------------------2-------2---|--------2-----------------------|
|--------2---------------2-------|--------------------------------|
|0---------------0---------------|0-------0-------2-------4-------|

 A7      |       |       |        |       |       |       |        
|----0---------------0-----------|----0-------0-------------------|
1S2-------------1S2-------------1S2------1S2------0---------------|
|--------------------------------|--------------------2-----------|
|------------2---------------2---|--------------------------------|
|0---------------0---------------|0---------------2---------------|
|--------0---------------0-------|--------0---------------4-------|

 E7      |       |       |        |       |       |       |        
|--------------------------------|--------------------------------|
|0---0---0---0---0---------------|--------------------------------|
|------------------------2-------|1-----------1-----------2---3---|
|--------------------2-------2---|----2---------------------------|
|--------2---------------2-------|--------2-----------------------|
|0---------------0---------------|0---------------0-------4-------|

 B7      |       |       |        A7      |       |       |        
|--------------------------------|--------------------------------|
|0---0---0---0---0-------0-------|--------------------------------|
|----------------------------3---|2---2---2---2---0---------------|
|--------1---------------1-------|--------2-------------------2---|
|2-------------------------------|0-----------------------0-------|
|----------------2---------------|----------------0---------------|

 E7      |       |       |        |       |       |       |        
|--------------------------------|------------4---2---0---0-------|
|--------------------------------|--------------------------------|
|1---1---1---1-----------1-------|--------------------------------|
|----------------2-----------2---|----2-------2-------------------|
|--------2-----------2---2-------|----------------2---------------|
|0---------------0---------------|0-------4---------------4-------|

 E7 Chorus       |       |        |       |       |       |        
|0-------0-------0---------------|0-------0-------0---------------|
|--------------------------------|--------------------------------|
|--------------------------------|--------------------------------|
|----2-------2-------2-----------|----2-------2-------2-----------|
|----------------2-----------2---|----------------2-----------2---|
|0-------4---------------4-------|0-------4---------------4-------|

 |       |       |       |        |       |       |       |        
|4---4---4---4---0---0-------4---|--------------------------------|
|------------------------3-------|--------------------------------|
|--------------------------------|--------------------------------|
|----2-------2-------2-----------|--2-2-----2-2-----2-------------|
|----------------2-----------2---|--------------------2---0-------|
|0-------4---------------4-------|0-------0-------2---------4-0---|

 A7      |       |       |        |       |       |       |        
|--------------------------------|--------------------------------|
|--------------------------------|--------------------------------|
|2-------2-------0---------------|0-------0-----------------------|
|----2-------2-------2-------2---|----2-------2---2---------------|
|0---------------0---------------|0-------0-------------------2---|
|--------0---------------0-------|----------------0---0---4-------|

 E7      |       |       |        |       |       |       |        
|--------------------------------|--------------------------------|
|--------------------------------|--------------------------------|
|1---1---1---1-----------1-------|--------------------------------|
|----------------2---0-------2---|----2-------2-------2-----------|
|--------2---------------2-------|------------------------0-1-2---|
|0---------------0---------------|0-------3-------4---------------|

 B7      |       |       |        A7      |       |       |        
|--------------------------------|--------------------------------|
|0---0---0---0---0-------0-------|--------------------------------|
|----------------------------3---|2---2---2---2---0---------------|
|--------1---------------1-------|--------2-------------------2---|
|2-------------------------------|0-----------------------0-------|
|----------------2---------------|----------------0---------------|

 E7      |       |       |        |       C7  B7  |       |        
|--------------------------------|--------------------------------|
|--------------------------------|--------------------------------|
|1---1---1---1-----------1-------|--------------------------------|
|----------------2-----------2---|----2-------2-------2-----------|
|--------2-----------2---2-------|----------------2-------4---2---|
|0---------------0---------------|0-------4-----------------------|
            
Tabs too difficult? Try these video lessons and learn fast.


comments powered by Disqus
↑ Back to top | Tablatures and chords are parodies/interpretations of the original songs. You may use it for private study, scholarship, research or language learning purposes only