» » »

Rolling Stones, The Last Time Tabs (ver.2)

Artists:  A B C D E F G H I J K L M N O P Q R S T U V W X Y Z # 

The Last Time Tabs (ver.2)

Rolling Stones Tabs
 Rating:
4/5 (4 votes)
The Last Time lessons Tabs too difficult? Try these video lessons and learn fast
1
                

                      E           D    A   E           D    A

e|--------------------------------------------------------------------------|
B|-0-h3-3-0-5-3-3-2-2---0-h3-3-0-5-3-3-2-2--0-h3-3-0-5-3-3-2-2--------------|
G|--------------------------------------------------------------------------|
D|--------------------------------------------------------------------------|
A|--------------------------------------------------------------------------|
E|--------------------------------------------------------------------------|

  E          D    A           E                   D        A
                       Well I told you once and I told you twice
e|---------------------------------------------------------------------------|
B|-0-h3-3-0-5-3-3-2-2---0-h3-3-0-5-3-3-2-2---0-h3-3-0-5-3-3-2-2--------------|
G|---------------------------------------------------------------------------|
D|---------------------------------------------------------------------------|
A|---------------------------------------------------------------------------|
E|---------------------------------------------------------------------------|

   E                       D    A     E                  D       A
   But you never listen to my advice  you don't try very hard to please me
e|---------------------------------------------------------------------------|
B|------------0-h3-3-0-5-3-3-2-2-----------0-h3-3-0-5-3-3-2-2----------------|
G|---------------------------------------------------------------------------|
D|---------------------------------------------------------------------------|
A|---------------------------------------------------------------------------|
E|---------------------------------------------------------------------------|

        E                D         A           A                 Asus4  A
   With what you know it should be easy   Well this could be the last   time
e|----------------------------------------------------5-----------------5----|
B|-------0-h3-3-0-5-3-3-2-2---------------------2---5------5-----2----5------|
G|---------------------------------------------------------------------------|
D|---------------------------------------------------------------------------|
A|---------------------------------------------------------------------------|
E|---------------------------------------------------------------------------|

   A                 Asus4 A         D          Dsus4 D                A
   This could be the last time       May be the last time      I don't know
e|---------5----------------5---------------10-----------10-------5-------5--|
B|-2----5------5------2--5----5------5-h7-10----10-5-h7-10-----2-5---5-2-5---|
G|---------------------------------------------------------------------------|
D|---------------------------------------------------------------------------|
A|---------------------------------------------------------------------------|
E|---------------------------------------------------------------------------|

            E              D       A         E              D    A
   Well I'm sorry girl but I can't stay      feeling like I do today
e|---------------------------------------------------------------------------|
B|-------0-h3-3-0-5-3-3-2-2------------------------0-h3-3-0-5-3-3-2-2--------|
G|---------------------------------------------------------------------------|
D|---------------------------------------------------------------------------|
A|---------------------------------------------------------------------------|
E|---------------------------------------------------------------------------|

           E                 D        A       E                 D      A
   There's too much pain and too much sorrow  cuz I'll feel the same tomorrow
e|---------------------------------------------------------------------------|
B|--------0-h3-3-0-5-3-3-2-2---------------------------0-h3-3-0-5-3-3-2-2----|
G|---------------------------------------------------------------------------|
D|---------------------------------------------------------------------------|
A|---------------------------------------------------------------------------|
E|---------------------------------------------------------------------------|

       A                 Asus4 A     D          Dsus4 D             A
  Well this could be the last time   may be the last time   I don't know
e|-------------5-------------5---------------10-----------10----5-------5--|
B|-----2----5------5-----2-5----5----5-h7-10----10-5-h7-10---2-5---5-2-5---|
G|-------------------------------------------------------------------------|
D|-------------------------------------------------------------------------|
A|-------------------------------------------------------------------------|
E|-------------------------------------------------------------------------|
            
Submit corrections

comments powered by Disqus
↑ Back to top | Rolling Stones Tabs for The Last Time. Lyrics for acoustic guitar and electric guitar. 1 Tablatures and chords are parodies/interpretations of the original songs. You may use it for private study, scholarship, research or language learning purposes only