>
 >
Satisfaction 3

Satisfaction 3 Bass Tabs

Rolling Stones - Satisfaction 3 chords, tabs, tablatures, lyrics

Guitar lessons | Add/correct | Request | Top 50 tabs Artists:  A B C D E F G H I J K L M N O P Q R S T U V W X Y Z 0-9

Satisfaction 3 Bass Tabs – Rolling Stones

CD, Sheet music, Poster

Do you like Satisfaction 3? Share with your friends now
Bass TabsBass Tabs v2Bass Tabs v3ChordsChords v2Chords v3Drum TabsTabsTabs v2Tabs v3Ukulele
Bill Wyman - Bass



     W                   H        E  E  E  E     E  T S. E  T S. E  E  S. T E   
G||-------------------|-----------------------|--------------------------------|
D||-------------------|-----------------------|--------------------------------|
A||-------------------|-----------5--4--2--0--|---------------------2--4----0--|
E||-------------------|-----------------------|--0--L----0--L----0-------------|


  E  T S. E  T S. E  E  E  E     E  E  E  T S. E  E  E  E   
------------------------------|----------------------------|
--0--L----0--L----0-----------|----------------------------|
---------------------4--2--0--|-------------------2--4--0--|
------------------------------|--0-----0--L----0-----------|


  E  E  E  T S. E  E  E  E     E  E  E  E  E  E  E  E   
----------------------------|--------------------------|
--0-----0--L----0-----------|--------------------------|
-------------------4--2--0--|-----------------2--4--0--|
----------------------------|--0-----0-----0-----------|


  E  E  E  E  E  E  E  E     E  E  S. E  T S. E  T E  E   
--------------------------|------------------------------|
--0-----0-----0-----------|------------------------------|
-----------------4--2-----|------------------------------|
-----------------------2--|--0-----0-------0-------0-----|


  S. E  T E  E  E  E  E  S. T    E  E  E  E  E  E  E  E   
------------------------------|--------------------------|
------------------------------|--------------------------|
-------------------2--4-------|--0-----0-----0-----0-----|
--0-------0-----0--------2----|--------------------------|


  E  E  E  E  S. T E  E  E     E  E  E  E  E  E  E  E   
----------------------------|--------------------------|
----------------------------|--------------------------|
--0-----0-----0----2--4-----|--------------------------|
-------------------------2--|--0-----0-----0-----0-----|


  E  E  E  E  E  E  E  E     E  E  E  T S. E  E  E  E   
--------------------------|----------------------------|
--------------------------|----------------------------|
-----------------2--4-----|--0-----0--L----0-----0-----|
--0-----0-----0--------2--|----------------------------|


  E  E  E  E  E  E  E  E     T E.  T E  T S. E  E  Q     
--------------------------|-----------------------------|
--------------------------|-----------------------------|
--0-----0-----0--2--4-----|------------------------0----|
--------------------------|--0-------0--L----0--4-------|


  E  E  E  E  E  E  Q       E  E  E  E  E  E  E  E   
-------------------------|--------------------------|
-------------------------|--2-----2-----2-----------|
--2-----2-----2-----2----|-----------------4--2-----|
-------------------------|-----------------------4--|


  E  E  E  T S. E  E  E.  S    E  E  E  T S. E  E  E  E   
----------------------------|----------------------------|
----------------------------|----------------------------|
--0-----0--L----0-----0-----|-------------------2--4--0--|
----------------------------|--0-----0--L----0-----------|


  E  E  S. E  T E  E  E  E     S. E  T E  E  E  E  E  E   
----------------------------|----------------------------|
--0-----0-------0-----------|----------------------------|
-------------------4--2--0--|-------------------2--4--0--|
----------------------------|--0-------0-----0-----------|


  E  E  E  T S. E  E  E  S. T    E  E  E  T S. E  E  E.  T T  
------------------------------|------------------------------|
--0-----0--L----0-------------|------------------------------|
-------------------4--2-------|-------------------2--4---L---|
-------------------------2----|--0-----0--L----0-------------|


  E  E  E  T S. E  E  E  S. T    E  E  E  E  E.  S E  E   
------------------------------|--------------------------|
--0-----0--L----0-------------|--------------------------|
-------------------4--2-------|--------------------2--4--|
-------------------------2----|--0-----0-----0-----------|


  E  E  E  E  E  E  E  S. T    E  E  E  E  E  S. T E  E   
----------------------------|----------------------------|
--0-----0-----0-------------|----------------------------|
-----------------4--2-------|-----------------2----4--0--|
-----------------------2----|--0-----0-----0-------------|


  E  E  E  E  E  E  S. T E     E  E  E  E  E  E  E  E   
----------------------------|--------------------------|
--0-----0-----0-------------|--------------------------|
-----------------4--2-------|-----------------------4--|
----------------------------|--0-----0-----0-----0-----|


  E  T S. E  E  E  E  E  E     E  E  E  E  E  E  E  E   
----------------------------|--------------------------|
--0--L----0-----0-----------|--------------------------|
-------------------4--2-----|-----------------2--4-----|
-------------------------2--|--0-----0-----0--------2--|


  E  E  E  E  E  E  E  E     Q    S. E  T S. T E  E.  T T  
--------------------------|-------------------------------|
--0-----0-----0-----------|-------------------------------|
-----------------4--2-----|--------------------2--4---L---|
-----------------------2--|--0----0-------0---------------|


  E  T S. E  E  E  E  E.  T T    E  H.           E     H        E  Q    E   
------------------------------|---------------------|----------------------|
--0--L----0-----0-------------|---------------------|----------------------|
-------------------4--2---L---|---------------------|----------------------|
------------------------------|--0------------------|----------------------|


  E  E  S. E  T E  E  E.  T T    E  T S. E  E  E  E  S. T E   
------------------------------|------------------------------|
------------------------------|--0--L----0-----0-------------|
-------------------2--4---L---|-------------------4--2-------|
--0-----0-------0-------------|---------------------------2--|


  E  E  S. E  T E  E  E  E     E  E  E  E  E  E  E  E   
----------------------------|--------------------------|
----------------------------|--0-----0-----0-----------|
-------------------2--4--0--|-----------------4--2-----|
--0-----0-------0-----------|--------------------------|


  E  E  E  E  S. E  T S. E  T    E  E  S. E  T E  E  E  E   
------------------------------|----------------------------|
------------------------------|----------------------------|
------------------------------|-------------------2--4-----|
--0-----0-----0-------0-------|--0-----0-------0--------2--|


  E  E  E  E  E  E  E  E     E  E  E  E  E  E  E  E   
--------------------------|--------------------------|
--------------------------|--------------------------|
--0-----0-----0-----0-----|--0-----0-----0--2--4-----|
--------------------------|--------------------------|


  E  E  E  E  E  E  S. E  T    S. E  T S. E  T E  E  E  E   
----------------------------|------------------------------|
----------------------------|------------------------------|
----------------------------|---------------------2--4-----|
--0-----0-----0-----0-------|--0-------0-------0--------2--|


  E  E  E  E  E  E  E  E     T E.  T E  E  E  E  E  E   
--------------------------|----------------------------|
--------------------------|----------------------------|
--0-----0-----0-----0-----|--0-------0-----0--2--4-----|
--------------------------|----------------------------|


  E  E  E  E  S. T Q    E     E  E  E  E  E  E  E  T S.  
---------------------------|----------------------------|
---------------------------|----------------------------|
------------------------0--|--2-----2-----2-----2--L----|
--0-----0-----0----4-------|----------------------------|


  E  T S. E  E  E  E  E  E     E  E  E  E  E  E  S. T E   
----------------------------|----------------------------|
--2--L----2-----2-----------|----------------------------|
-------------------4--2-----|--0-----0-----0-----0----0--|
-------------------------2--|----------------------------|


  E  E  E  T S. E  E  E  E     E  T S. E  T S. E  E  Q     
----------------------------|-----------------------------|
----------------------------|--0--L----0--L----0----------|
-------------------2--4--0--|---------------------4--2----|
--0-----0--L----0-----------|-----------------------------|


  S. E  T E  E  S. E  T E  E     E  E  E  E  E  E  E  E   
------------------------------|--------------------------|
------------------------------|--0-----0-----0-----------|
---------------------------4--|-----------------4--2--L--|
--0-------0-----0-------0-----|--------------------------|


  E  E  E  E  S. T E  S. T E     E  E  E  T S. E  E  E  E   
------------------------------|----------------------------|
------------------------------|--0-----0--L----0-----------|
-------------------2--4----0--|-------------------4--2-----|
--0-----0-----0---------------|----------------------------|


  E  E  E  E  S. E  T S. T E     E  E  E  E  E  E  E  E   
------------------------------|--------------------------|
------------------------------|--0-----0-----0-----------|
---------------------------4--|-----------------4--2-----|
--0-----0-----0-------0-------|--------------------------|


  E  E  S. E  T S. E  T E  E     E  E  E  E  E  E  E  E   
------------------------------|--------------------------|
------------------------------|--0-----0-----0-----------|
---------------------------4--|-----------------4--2--L--|
--0-----0-------0-------0-----|--------------------------|


  E  E  E  E  E  E  E  E     E  E  E  E  E  E  E  E   
--------------------------|--------------------------|
--------------------------|--0-----0-----0-----------|
-----------------2--4-----|-----------------4--2-----|
--0-----0-----0--------2--|--------------------------|


  E  T S. E  E  E  E  E  E     E  E  E  E  E  E  E  E   
----------------------------|--------------------------|
----------------------------|--0-----0-----0-----------|
-------------------------4--|-----------------4--2-----|
--0--L----0-----0-----0-----|-----------------------2--|


  E  T S. E  E  E  E  E  E     E  E  E  E  E  E  E  E   
----------------------------|--------------------------|
----------------------------|--0-----0-----0-----------|
-------------------2--4--0--|-----------------4--2--L--|
--0--L----0-----0-----------|--------------------------|


  Q    T H        E.  T    H        E  Q    E     E  E  E  E  E  E  Q     
------------------------|----------------------|-------------------------|
------------------------|----------------------|-------------------------|
------------------------|----------------------|-----------------2--4----|
--0----L----------------|----------------------|--0-----0-----0----------|


  E  T S. E  T S. E  E  E  S. T    E  E  E  E  E  E  E  E   
--------------------------------|--------------------------|
--0--L----0--L----0-------------|--------------------------|
---------------------4--2-------|-----------------2--4-----|
--------------------------------|--0-----0-----0--------2--|


  E  T S. E  E  E  E  E  E     E  E  E  E  S. E  T E  E   
----------------------------|----------------------------|
--0--L----0-----0-----------|----------------------------|
-------------------4--2-----|----------------------------|
----------------------------|--0-----0-----0-------0-----|


  S. E  T S. E  T E  E  E  E     E  E  E  E  E  E  E  E   
------------------------------|--------------------------|
------------------------------|--------------------------|
---------------------2--4-----|--0-----0-----0-----0-----|
--0-------0-------0--------2--|--------------------------|


  E  E  E  E  E  E  E  E     E  E  E  E  E  E  E  E   
--------------------------|--------------------------|
-----------------------0--|--------------------------|
--0-----0-----0--2--4-----|--------------------------|
--------------------------|--0-----0-----0-----0-----|


  S. E  T S. E  T E  E  E  E     E  E  E  E  S. E  T E  E   
------------------------------|----------------------------|
------------------------------|----------------------------|
---------------------2--4-----|--0-----0-----0-------0-----|
--0-------0-------0--------2--|----------------------------|


  E  E  S. E  T E  E  E  E     E  E  E  E  S. E  T E  E   
----------------------------|----------------------------|
-------------------------2--|----------------------------|
--0-----0-------0--2--4-----|----------------------------|
----------------------------|--0-----0-----0-------0--4--|


  E  T S. E  T S. E  E  E.  T T    E  T S. E  E  E  E  E  E   
--------------------------------|----------------------------|
--------------------------------|----------------------------|
--2--L----2--L----2-----2---L---|-------------------2--4-----|
--------------------------------|--0--L----0-----0--------2--|


  E  E  E  E  E  E  E  E     E  E  E  E  E  E  E  E   
--------------------------|--------------------------|
-----------------------2--|--------------------------|
--0-----0-----0--2--4-----|--------------------2--4--|
--------------------------|--0-----0-----0-----------|


  E  T S. E  E  E  E  E  E     E  E  S. E  T S. E  T E  E   
----------------------------|------------------------------|
--0--L----0-----0-----------|------------------------------|
-------------------4--2-----|------------------------2--4--|
----------------------------|--0-----0-------0-------------|


  E  T S. Q    E  E  E  S. T    E  E  E  E  S. E  T S. T S. T  
-----------------------------|--------------------------------|
--0--L----0----2--0----------|--------------------------------|
---------------------4-------|---------------------------4----|
-----------------------------|--0-----0-----0-------0---------|


  E  T S. E  E  E  E  E  S. T    E  E  E  E  E  E  S. T E   
------------------------------|----------------------------|
--0--L----0-----0-------------|----------------------------|
-------------------4--2-------|-----------------2--4-------|
------------------------------|--0-----0-----0----------2--|


  E  E  E  E  E  E  E  E     E  E  S. E  T E  E  E  E   
--------------------------|----------------------------|
--0-----0-----0-----------|----------------------------|
-----------------4--2--L--|-------------------2--4--2--|
--------------------------|--0-----0-------0-----------|


  E  E  E  E  E  E  E  E     E  E  E  E  E  E  E  E   
--------------------------|--------------------------|
--0-----0-----0-----------|--------------------------|
-----------------4--2-----|-----------------------4--|
--------------------------|--0-----0-----0-----0-----|


  E  E  E  E  E  E  E  E     E  E  E  E  E  E  E  E   
--------------------------|--------------------------|
--0-----0-----0-----------|--------------------------|
-----------------4--2-----|-----------------2--4--0--|
-----------------------2--|--0-----0-----0-----------|


  E  E  E  E  E  E  E  E     E  E  E  E  E  E  E  E   
--------------------------|--------------------------|
--0-----0-----0-----------|--------------------------|
-----------------4--2-----|-----------------2--4--0--|
--------------------------|--0-----0-----0-----------|


  E  E  E  E  E  E  E  E     E  E  E  H        E     H        E  Q    E   
--------------------------|-----------------------|----------------------|
--0-----0-----0-----------|-----------------------|----------------------|
-----------------4--2-----|-----------------------|----------------------|
--------------------------|--0-----0--------------|----------------------|


  E  E  E  E  E  E  S. T E     E  E  E  E  E  E  E  E   
----------------------------|--------------------------|
----------------------------|--0-----0-----0-----------|
-----------------2--4----0--|-----------------4--2-----|
--0-----0-----0-------------|--------------------------|


  E  E  E  E  S. E  T E  E     E  E  E  E  E  T S. E  E   
----------------------------|----------------------------|
----------------------------|--0-----0-----0--L----0-----|
----------------------2--4--|-------------------------4--|
--0-----0-----0-------------|----------------------------|


  E  E  E  E  S. T E  E  E     E  E  S. E  T E  E  E  E   
----------------------------|----------------------------|
----------------------------|--0-----0-------0-----------|
-------------------2--4--0--|-------------------4--2-----|
--0-----0-----0-------------|----------------------------|


  E  E  E  E  E  E  S. T E     E  E  E  E  E  E  E  E   
----------------------------|--------------------------|
----------------------------|--0-----0-----0-----------|
-------------------------4--|-----------------4--2--L--|
--0-----0-----0-----0-------|--------------------------|


  S. E  T E  E  S. E  T E  E     E  E  E  E  E  E  E  E   
------------------------------|--------------------------|
------------------------------|--0-----0-----0-----------|
------------------------2--4--|-----------------4--2--L--|
--0-------0-----0-------------|--------------------------|


  S. E  T E  E  E  E  E  E     E  T S. E  T S. E  E  E  E   
----------------------------|------------------------------|
----------------------------|--0--L----0--L----0-----------|
-------------------2--4--0--|---------------------4--2-----|
--0-------0-----0-----------|------------------------------|


  E  E  E  E  E  E  E.  S    E  T S. E  E  E  E  E.  T T  
--------------------------|------------------------------|
--------------------------|------------------------------|
--------------------------|------------------------------|
--0-----0-----0-----0-----|--3--L----3-----3-----3---L---|


  E  T S. E  T S. E  E  E  T S.    E  T S. E  T S. E  E  E.  T T  
--------------------------------|--------------------------------|
--------------------------------|------------------0-----0---L---|
--0--L----0--L----0-----0--L----|--3--L----3--L------------------|
--------------------------------|--------------------------------|


  E  E  E  T S. E  E  E  E     H        E  Q    E          
----------------------------|----------------------|-----||
-------------------------0--|----------------------|-----||
-------------------2--4-----|----------------------|-----||
--0-----0--L----0-----------|--0--------L----------|-----||




Duration Legend
---------------
W - whole
H - half
Q - quarter
E - 8th
S - 16th
T - 32nd
X - 64th
. - note dotted
|-n-|  - n-tuplets


Tablature Legend
----------------
L - tied note
x - dead note
g - grace note
(n) - ghost note
> - accentuded note
NH - natural harmonic
AH - artificial harmonic
TH - tapped harmonic
SH - semi harmonic
PH - pitch harmonic
h - hammer on
p - pull off
b - bend
br - bendRelease
pb - preBend
pbr - preBendRelease
brb - bendReleaseBend
\n/ - tremolo bar dip
\n - tremolo bar dive
-/n - tremolo bar Release up
/n\ - tremolo bar inverted dip
/n - tremolo bar return
-\n - tremolo bar Release down
S - shift slide
s - legato slide
/ -  slide into from below or out of upwards
\ -  slide into from above or out of downwards
~ - vibrato
W - wide vibrato
tr - trill
TP - tremolo picking
T - tapping
S - slap
P - pop
< - fade in
^ - brush up
v - brush down





Comments


Popular Rolling Stones tabs & chords
I Just Want To Make Love To You Chords
Let It Bleed Chords
Neighbors Chords
Sing This All Together Chords
Turd On The Run Chords
Can't You Hear Me Knocking Tabs
Flip The Switch Tabs
Love In Vain.Cho Tabs
Salt Of The Earth 1 Tabs
Sympathy For The Devil 3 Tabs


Song lyrics



↑ Back to top | Tablatures and chords are parodies/interpretations of the original songs. You may use it for private study, scholarship, research or language learning purposes only
© 2014 AZChords.com Contact us | Privacy policy | DMCA | Add/correct tabs | Request tabs | Top 50 tabs