>
 >
Jumpin Jack Flash 4

Jumpin Jack Flash 4 Guitar Tabs

Rolling Stones - Jumpin Jack Flash 4 chords, tabs, tablatures, lyrics

Guitar lessons | Add/correct | Request | Top 50 tabs Artists:  A B C D E F G H I J K L M N O P Q R S T U V W X Y Z 0-9

Jumpin Jack Flash 4 Guitar Tabs – Rolling Stones

CD, Sheet music, Poster

Do you like Jumpin Jack Flash 4? Share with your friends now
Tabs
Band: The Rolling Stones

Intro:

Guitar 1
e--7---7---7-7---0---0--7---7-7--|
B--7---7---7-7---0---0--7---7-7--|
G--8---8---8-8---1---1--6---6-6--|
D--9---9---9-9---2---2--7---7-7--|
A--9---9---9-9---2---2--7---7-7--|
E--7---7---7-7---0---0--5---5-5--|

Guitar 2
e--------------------------------|
B--------------------------------|
G-----------------------2--------|
D----------------2------2--------|
A----------------2------0--------|
E----------------0---------------|

Guitar 1                                                  
e--7-----7-----7---0-----5-----5----|
B--7-----7-----7---0-----5-----5----|
G--8-8-8-8-8-8-8-8-1-1-1-6-6-6-6-6--| x2
D--9-9-9-9-9-9-9-9-2-2-2-7-7-7-7-7--|
A--9-9-9-9-9-9-9-9-2-2-2-7-7-7-7-7--|
E--7-7-7-7-7-7-7-7-0-0-0-5-5-5-5-5--|

Guitar 2
e-----------------------------------|
B-----------------------------------|
G--4---------------------2----------| x2
D--4---------------2-----2----------|
A--2---------------2-----0----------|
E------------------0----------------|

Guitar 1
e------------------7-7-------------7-7--------------|
B------------------7-7-------------7-7--------------|
G------------------8-8-------------8-8--------------|
D--9-9-9-9-9-9-9-9-9-9-9-9-9-9-9-9-9-9-9-9-9-9-9-9--|
A--9-9-9-9-9-9-9-9-9-9-9-9-9-9-9-9-9-9-9-9-9-9-9-9--|
E--7-7-7-7-7-7-7-7-7-7-7-7-7-7-7-7-7-7-7-7-7-7-7-7--|

Guitar 2
e---------------------------------------------------|
B-----------------4-4-4-----------4-4-4-------------|
G--4--------------4-4-4-----------4-4-4-------------|
D--4--------------4-4-4-----------4-4-4-------------|
A--2--------------2-2-2-----------2-2-2-------------|
E---------------------------------------------------|

Guitar 1 and 2
e------------------------------|
B------------------------------|
G--4--4-------2------2------2--| x2
D--4--4---2-4----2-4----2-4----|
A--2--2------------------------|
E------------------------------|

Verse 1: (Both)

e------------------------------------------------------------|
B------------------------------------------------------------|
G------4--4------2------2------2-4--4-------2------2------2--|
D------4--4--2-4----2-4----2-4---4--4---2-4----2-4----2-4----|
A------2--2----------------------2--2------------------------|
E------------------------------------------------------------|
 "I was born in a cross fire hurricane"

e-----------------------------------------------------|
B-----------------------------------------------------|
G------4--4------2------2------2-4--4-------2------2--|
D------4--4--2-4----2-4----2-4---4--4---2-4----2-4----|
A------2--2----------------------2--2-----------------|
E-----------------------------------------------------|
 "And I howled at ma in the driving rain"

Chorus: (Both)
    (D)              (A)                (E)              (B)
e--------14--12-------------------------------------------------------|
B---------------15--15----15--14-14--14----15--14----------15--14-----|
G---------------14--14-----------14--14-----------16--16----------16--|
D---------------0---0------------14--14-------------------------------|
A---------------------------------------------------------------------|
E---------------------------------------------------------------------|
  "...All..............right..............now..., In fact, it's a gas!"

     (D)             (A)               (E)                (B)
e--------14--12------------------------------10------9-----7--|
B---------------15--15----12-14-12-14-12--------12-----12--7--|
G---------------14--14-------------------------------------8--|
D---------------0---0--------------------------------------9--|
A----------------------------------------------------------9--|
E----------------------------------------------------------7--|
  "...All..............right............I'm Jumping...It's a gas, gas, gas"

Break:

Guitar 1

e--7-7-7--7--7---7--7-7-7--7--7--|
B--7-7-7--7--7---7--7-7-7--7--7--|
G--8-8-8--8--8---8--8-8-8--8--8--|
D--9-9-9--9--9---9--9-9-9--9--9--|
A--9-9-9--9--9---9--9-9-9--9--9--|
E--7-7-7--7--7---7--7-7-7--7--7--|

Guitar 2
e--7-7-7------------7-7-7--------|
B--7-7-7------------7-7-7--------|
G--8-8-8------------8-8-8--------|
D--9-9-9------------9-9-9--------|
A--------------------------------|
E--------------------------------|

Both
e------------------------------------------------------------|
B------------------------------------------------------------|
G------4--4------2------2------2-4--4-------2------2------2--|
D------4--4--2-4----2-4----2-4---4--4---2-4----2-4----2-4----|
A------2--2----------------------2--2------------------------|
E------------------------------------------------------------|

Verse 2: (Both)

e------------------------------------------------------------|
B------------------------------------------------------------|
G------4--4------2------2------2-4--4-------2------2------2--|
D------4--4--2-4----2-4----2-4---4--4---2-4----2-4----2-4----|
A------2--2----------------------2--2------------------------|
E------------------------------------------------------------|
 "I was raised by a toothless, bearded hag"

e-----------------------------------------------------|
B-----------------------------------------------------|
G------4--4------2------2------2-4--4-------2------2--|
D------4--4--2-4----2-4----2-4---4--4---2-4----2-4----|
A------2--2----------------------2--2-----------------|
E-----------------------------------------------------|
 "I was schooled with a strap right across my back"

Chorus x1

Guitar 1
e--7-7-7--7--7---7--7-7-7--7--7--|
B--7-7-7--7--7---7--7-7-7--7--7--|
G--8-8-8--8--8---8--8-8-8--8--8--| x3
D--9-9-9--9--9---9--9-9-9--9--9--|
A--9-9-9--9--9---9--9-9-9--9--9--|
E--7-7-7--7--7---7--7-7-7--7--7--|

Guitar 2
e--7-7-7------------7-7-7--------|
B--7-7-7------------7-7-7--------|
G--8-8-8------------8-8-8--------| x3
D--9-9-9------------9-9-9--------|
A--------------------------------|
E--------------------------------|

Break 2:

Guitar 1
e--2-----2----4-2---0--2-4--|
B----0-0----------0---------|
G---------------------------| x4
D---------------------------|
A---------------------------|
E---------------------------|

Guitar 2
e-------------------------------------------------------------------|
B-------------------------------------------------------------------|
G-------------------------------4--------------4--4--------------2--|
D-----------------------2---2-4-------4-6-2----4--4-----4-6-2--4----|
A------------------0--2-------------2----------2--2---2-------------|
E------------0-/2---------------------------------------------------|

e-----------------------------|
B-----------------------------|
G--4--4--------------2--4--4--|
D--4--4-----4-6-2--4----4--4--|
A--2--2---2-------------2--2--|
E-----------------------------|

Guitar 1
e--2--------2-4--|
B----0-0-0-------|
G----------------| x3
D----------------|
A----------------|
E----------------|

Guitar 2
e----------------|
B----------------|
G--4-4-4---------| x3
D--4-4-4---------|
A--2-2-2---------|
E----------------|

Both
e------------------------------------------------------------|
B------------------------------------------------------------|
G------4--4------2------2------2-4--4-------2------2------2--|
D------4--4--2-4----2-4----2-4---4--4---2-4----2-4----2-4----|
A------2--2----------------------2--2------------------------|
E------------------------------------------------------------|

Verse 3: (Both)

e------------------------------------------------------------|
B------------------------------------------------------------|
G------4--4------2------2------2-4--4-------2------2------2--|
D------4--4--2-4----2-4----2-4---4--4---2-4----2-4----2-4----|
A------2--2----------------------2--2------------------------|
E------------------------------------------------------------|
"I was drowned, I was washed up and left for dead"

e-------------------------------------------------------------|
B-------------------------------------------------------------|
G-------4--4------2------2------2-4--4-------2------2------2--|
D-------4--4--2-4----2-4----2-4---4--4---2-4----2-4----2-4----|
A-------2--2----------------------2--2------------------------|
E-------------------------------------------------------------|
"I fell down to my feet and I saw they bled"

e------------------------------------------------------------|
B------------------------------------------------------------|
G------4--4------2------2------2-4--4-------2------2------2--|
D------4--4--2-4----2-4----2-4---4--4---2-4----2-4----2-4----|
A------2--2----------------------2--2------------------------|
E------------------------------------------------------------|
    "I frowned at the crumbs of a crust of bread"

e-----------------------------------------------------|
B-----------------------------------------------------|
G------4--4------2------2------2-4--4-------2------2--|
D------4--4--2-4----2-4----2-4---4--4---2-4----2-4----|
A------2--2----------------------2--2-----------------|
E-----------------------------------------------------|
"I was crowned with a spike right thru my head"

Chorus x1

Break:

Guitar 1

e--7-7-7--7--7---7--7-7-7--7--7--|
B--7-7-7--7--7---7--7-7-7--7--7--|
G--8-8-8--8--8---8--8-8-8--8--8--|
D--9-9-9--9--9---9--9-9-9--9--9--|
A--9-9-9--9--9---9--9-9-9--9--9--|
E--7-7-7--7--7---7--7-7-7--7--7--|

Guitar 2
e--7-7-7------------7-7-7--------|
B--7-7-7------------7-7-7--------|
G--8-8-8------------8-8-8--------|
D--9-9-9------------9-9-9--------|
A--------------------------------|
E--------------------------------|

Outro:

Both
e---------------------------------|
B---------------------------------|
G--4--4---------------------------| x4
D--4--4---------------------------|
A--2--2---------------------------|
E---------------------------------|
 "Jumpin' Jack Flash, it's a gas!"

Guitar 2 (Guitar 1 just kinda strums around on with "B,E,A")
e-------------------12--12-10-9-7-9-7----------|
B----------------------------------------------|
G----------------------------------------------| x6 to fade
D----------------------------------------------|
A----------------------------------------------|
E----------------------------------------------|





Comments


Popular Rolling Stones tabs & chords
Cherry Oh Baby Chords
Let It Loose Chords
The Singer Not The Song 1 Chords
2000 Light Years From Home 1 Tabs
Are You Already Over Me 1 Tabs
Get Off My Cloud Tabs
You Got The Silver Tabs
All The Way Down Ukulele
Almost Hear You Sigh Ukulele
Brand New Car Ukulele


Song lyrics



↑ Back to top | Tablatures and chords are parodies/interpretations of the original songs. You may use it for private study, scholarship, research or language learning purposes only
© 2014 AZChords.com Contact us | Privacy policy | DMCA | Add/correct tabs | Request tabs | Top 50 tabs