» » »

Jumping Jack Flash Tabs (ver.1)

Artists:  A B C D E F G H I J K L M N O P Q R S T U V W X Y Z # 

Jumping Jack Flash Tabs (ver.1)

Rolling Stones
Rating:
0/5 (0 votes)

Hard to play? Try these video lessons and learn fast.
                intro
E--------------------------------------------------------------------------
B--------------------------------------------------------------------------
G--------------------------------------------------------------------------
D--9-9---9-9-9---7-7-7-----------------------------------------------------
A--9-9---111111--5-5-5-----------------------------------------------------
E--7-7---7-7-7---5-5-5---(3x)----------------------------------------------


main riff
E------------0-------------0-----------------------------------------------
B------------0-------------0-----------------------------------------------
G-8-8--------2----8-8------2---8-8-----2-----------------------------------
D-9-9----2-4------9-9--2-4-----9-9-2-4-------------------------------------
A-9-9-------------9-9----------9-9-----------------------------------------
E-7-7-------------7-7----------7-7-----------------------------------------


chorus
E-10-0-14-0-12-0-0-0-9-0-7-0-----0-10---9-7---7---10---9-7-0-14-0-12-10-0-9
7----------------------------7-9------9-----9---7----7---------------------
G--------------------------------------------------------------------------
D--------------------------------------------------------------------------
A--------------------------------------------------------------------------
E--------------------------------------------------------------------------

solo:
I Don't Know

Outro
E-12-12-10-9-7-9-7--(7)----------------------------------------------------
B--------------------------------------------------------------------------
G--------------------------------------------------------------------------
D--------------------------------------------------------------------------
A--------------------------------------------------------------------------
E--------------------------------------------------------------------------
            
Hard to play? Try these video lessons and learn fast. | Correct




comments powered by Disqus
↑ Back to top | Tablatures and chords are parodies/interpretations of the original songs. You may use it for private study, scholarship, research or language learning purposes only