» » »

Rolling Stones, Jumpin Jack Flash Bass tabs (ver.6)

Artists:  A B C D E F G H I J K L M N O P Q R S T U V W X Y Z # 

Jumpin Jack Flash Bass tabs (ver.6)

Rolling Stones Tabs
Rating:
0/5 (0 votes)
Jumpin Jack Flash lessons Tabs too difficult? Try these video lessons and learn fast
                I wrote this tab in Bb instead of B because the Stones had their guitars tuned flat when 
they recorded this song. The recording hovers somewhere between B and Bb but is closer 
to Bb in my opinion. Enjoy.


Tuning: EADG

Time signature: 4/4

r = rest (listen for duration)
h = hammer on
/ = slide (low to high)
\ = slide (high to low)
()= note inside parenthesis not plucked or hammered on
||= measure gets repeated (see number of times above measure, e.g. 4x)

*My tabs are meant to be read in conjunction with listening to the song.
In other words, there are no specific notations to account for note/rest duration.
However, you will find that I've made an attempt to strategically space the notes
and rests within their respective measures in order to represent the appropriate
durations.



INTRO

G|--------------------------------|--------------------------------|
D|r-------------------------------|r-------------------------------|
A|--------------------------------|--------------------------------|
E|--------------------------------|--------------------------------|



|--------------------------------|-----------------------------------|
|r------------------------------/|13-----------11-----------10-------|
|--------------------------------|-----------------------------------|
|--------------------------------|-----------------------------------|



|--------------------------------|-----------------------------------|
|8---------6h8-------8---8---8--/|13-----------11-----------10---6---|
|--------------------------------|-----------------------------------|
|--------------------------------|-----------------------------------|



|--------------------------------|--------------------------------|
|8-----------8-----6h8-----6h8---|8---8---8-------------6h8-----6h|
|--------------------------------|--------------------------------|
|--------------------------------|--------------------------------|



|--------------------------------|--------------------------------|
|8---8---8-----------------------|--------------------------------|
|--------------------6-----------|--------------------------------|
|------------------------9\------|6-------6---r-------6---6---6---|



VERSE 1

  6x
||--------------------------------|--------------------------------||
||--------------------------------|--------------------------------||
||--------------------------------|--------------------------------||
||6-------6---r-------6---6---6---|r---6---6---6---r---6---6---4---||



CHORUS

|--------------------------------|--------------------------------|
|--------------------------------|--------------------------------|
|4-------4-------4---4---3---3---|--------------------3---4---5---|
|--------------------------------|4-------4-------4---------------|



|--------------------------------|--------------------------------|
|--------------------------------|--------------------------------|
|6-------6-----------6---6---4---|--------------------------------|
|--------------------------------|6-------6-------6---6---6---4---|



|--------------------------------|--------------------------------|
|--------------------------------|--------------------------------|
|4-------4-------4---4---3---3---|--------------------3---4---5---|
|--------------------------------|4-------4-------4---------------|



|--------------------------------|--------------------------------|
|--------------------------------|8---------------------6h8-----6h|
|6-----------4---6---4---6-------|--------------------------------|
|----------------------------4---|--------------------------------|



|--------------------------------|--------------------------------|
|8---------------------6h8---6-6-|8---------------------6h8-------|
|--------------------------------|--------------------------------|
|--------------------------------|--------------------------------|



[VERSE 1] (w/variation)


[CHORUS]



INTERLUDE

  4x
||--------------------------------|-----------------------------------||
||8---------6h8-----------8/------|13-----------11-----------10\---(6)||
||--------------------------------|-----------------------------------||
||--------------------------------|-----------------------------------||



|--------------------------------|--------------------------------|
|8---------6h8---------------6-6-|8---------6h8---------------6-6-|
|--------------------------------|--------------------------------|
|--------------------------------|--------------------------------|



|--------------------------------|
|8---------6h8-----------6\------|
|--------------------------------|
|--------------------------------|



VERSE 2

  10x
||--------------------------------|--------------------------------||
||--------------------------------|--------------------------------||
||--------------------------------|--------------------------------||
||6-------6---r-------6---6---6---|r---6---6---6---r---6---6---4---||



[CHORUS]


[INTERLUDE]  To fade



              (PLEASE RATE THIS TAB / LEAVE COMMENT)
            

comments powered by Disqus
↑ Back to top | Rolling Stones Bass for Jumpin Jack Flash. Lyrics for acoustic guitar and electric guitar. Tablatures and chords are parodies/interpretations of the original songs. You may use it for private study, scholarship, research or language learning purposes only