>
 >
It Wont Take Long

It Wont Take Long Guitar Tabs

Rolling Stones - It Wont Take Long chords, tabs, tablatures, lyrics

Guitar lessons | Add/correct | Request | Top 50 tabs Artists:  A B C D E F G H I J K L M N O P Q R S T U V W X Y Z 0-9

It Wont Take Long Guitar Tabs – Rolling Stones

CD, Sheet music, Poster

Do you like It Wont Take Long? Share with your friends now
ChordsChords v2TabsTabs v2Ukulele
It Won't Take Long
The Rolling Stones
A Bigger Bang

Rhythm Guitar - Open G Tuning (DGDGBD)
Lead Guitar - Standard tuning (EADGBE)

Intro:
D|-----------------------3.9*------|
B|-----------------------3.9*-3.9*-|
G|-0-0--0-2-0-2-4--X-X-X------3.9*-|
D|-0-0--0-2-0-2-4--X-X-X-----------|
G|-0-0--0-2-0-2-4--X-X-X-----------|
D|---------------------------------|
  * harmonics

D|-----------------------|
B|-----------------------|
G|-0-0--0-2-0-2-4----4---|
D|-0-0--0-2-0-2-4----4---|
G|-0-0--0-2-0-2-4----4---|
D|-----------------------|

Intro fills:
E|-----------------|-------|
B|-----------------|-10/12-|
G|-9b11--7-9---7---|-------|
D|-----------9---9-|-------|
A|-----------------|-------|
E|-----------------|-------|

Verse:
D|-----------------------|
B|-----------------------|
G|-0-0--0-2-0-2-4----4---|
D|-0-0--0-2-0-2-4----4---|
G|-0-0--0-2-0-2-4----4---|
D|-----------------------|

Verse 1 fills:
  (0:31)                 (0:33)             (0:47)
E|--------7----------7-|-7---7---7---7~~~-|-------------|
B|------7---------7----|-7---7---7---7~~~-|-------------|
G|-9b11------9b11------|------------------|-------------|
D|---------------------|------------------|---7-9-9-7---|
A|---------------------|------------------|-9---------9-|
E|---------------------|------------------|-------------|

Chorus:
D|-----------------------|
B|-----------------------|
G|-9-9-9-9-7-4--4--4--4--|
D|-9-9-9-9-7-4--4--4--4--|
G|-9-9-9-9-7-4--4--4--4--|
D|-----------------------|

Verse 2 fills:
  (1:37)    (1:42)
E|---------|--------------|
B|---------|--------------|
G|---7h9-7-|-9b11p7h9-7---|
D|-9-------|------------9-|
A|---------|--------------|
E|---------|--------------|


Solo (over verse):
  (2:03)                   (2:07)
E|-----------------------|----------------------------------|
B|---7-------------------|----------------10b12-10-10p7-----|
G|---7h9-7-9b11-7-9---7--|-9b11r9-7---7-9---------------9-7-|
D|-9----------------9--9-|----------9-----------------------|
A|-----------------------|----------------------------------|
E|-----------------------|----------------------------------|

  (2:11)                                    (2:15)
E|----------------------------------------|-------------------------------|
B|--------------------/12-7---------------|----------------------10-10-10-|
G|---7-9-9b11r9-7-9-7-----7---7-----------|-----------------7----11-11-11-|
D|-9------------------------9---9-7-------|---------------7---9-----------|
A|----------------------------------9\7-5-|-7p5---5-7-7/9-----------------|
E|----------------------------------------|-----7-------------------------|

  (2:20)                                (2:23)
E|-------------10-10-10-10-12-12-10-10-|-12-12-12-12-10-12b14-12-10-12-10-|
B|-12-12-12-12-12-12-12-12-12-12-12-12-|----------------------------------|
G|-11-11-11-11-------------------------|----------------------------------|
D|-------------------------------------|----------------------------------|
A|-------------------------------------|----------------------------------|
E|-------------------------------------|----------------------------------|

  (2:26)                (2:28)
E|--------------------|---------------------------------|
B|-12-10--------------|---------------------------------|
G|-------11\9-7-9-7---|-7-------------------------------|
D|------------------9-|---9-7---7-------------------7-9-|
A|--------------------|-------9---9\7-5---5-7-5-7/9-----|
E|--------------------|-----------------7---------------|

  (2:32)
E|--------------------------|
B|-7-9-7--------------------|
G|-7-9-7-9-7-9-10-9-7-9-7---|
D|------------------------9-|
A|--------------------------|
E|--------------------------|

Last chorus fills:
  (2:42)                  (2:50)
E|-12b14-10-12b14-10----|------------------------|
B|-------------------12-|------------------------|
G|----------------------|-9b11-9b11-9b11---9p7---|
D|----------------------|----------------------9-|
A|----------------------|------------------------|
E|----------------------|------------------------|

  (2:59)                     (3:05)
E|-12-12-12-10-12b14-10----|-12b14-12-10----------------|
B|----------------------12-|-------------12-10----------|
G|-------------------------|-------------------11\9-7---|
D|-------------------------|--------------------------9-|
A|-------------------------|----------------------------|
E|-------------------------|----------------------------|





Comments


Popular Rolling Stones tabs & chords
Live With Me Bass Tabs
Im Free 1 Chords
Moon Is Up Chords
Paint It Black 1 Chords
Route 66 Chords
Satisfaction 1 Chords
Thru And Thru Chords
Bitch Tabs
I Go Wild Tabs
Stoned Tabs


Song lyrics



↑ Back to top | Tablatures and chords are parodies/interpretations of the original songs. You may use it for private study, scholarship, research or language learning purposes only
© 2014 AZChords.com Contact us | Privacy policy | DMCA | Add/correct tabs | Request tabs | Top 50 tabs