» » »

Rolling Stones, Dead Flowers Bass tabs (ver.1)

Artists:  A B C D E F G H I J K L M N O P Q R S T U V W X Y Z # 

Dead Flowers Bass tabs (ver.1)

Rolling Stones Tabs
 Rating:
4/5 (4 votes)
Dead Flowers lessons Tabs too difficult? Try these video lessons and learn fast
                -------------------------------------------------------------------------------
                             Dead Flowers (bass tab) - The Rolling Stones
-------------------------------------------------------------------------------


Tuning: EADG

I'm not a bass player but I'm learning this for my band.
I've only tabbed the Intro, Verse, Bridge and Chorus and everything Bill Wyman plays 
after that is a variation (a few extra licks here and there).
I've probably got a few things wrong like octaves and which strings to use but it's 
mostly there.


Intro

G|--------------------------------------|
D|----------7-7-------4-5-5--7----------|
A|-5-5---5-------7-0------------5-5--0--|
E|--------------------------------------|


Verse

G|---------------------------------------------------------------------------|
D|---------------------------------------5-6--7-7------4-5-5---7------7------|
A|-5-5---5--0-0----------0-5-5--0----5-5-----------7-0-----------5-5----0----|
E|---------------4--3-3------------------------------------------------------|

G|---------------------------------------------------------------------------|
D|----------7-7--6--5-5--7----------------5-6--7-7-----4-5-5-6-7-----5-6-7---|
A|-5-5---5-----------------5-5-------5-5-5---------7-0-----------5-5------5--|
E|-----------------------------5-7-5-----------------------------------------|


Bridge

G|---------------------------------------------------------------------------|
D|-----2-----------7--0-0--------0-----4-5-6--7-7-------------7--------------|
A|-0-0----0--4-7-9---------2-0-2---5-7------------7-4-0-4-7-9----------------|
E|---------------------------------------------------------------------------|

G|---------------------|
D|-0-0------0-0-7/9-7--|
A|-----2-0-------------|
E|---------------------|


Chorus


G|--------------------------------------------|
D|-5-5--0-0---5-5-7-5-5--0-0-----0-0-9-9-7-7--|
A|---------------------------2-0--------------|
E|--------------------------------------------|

G|--------------------------------------------|
D|-5-5--0-0---5-5-7-5-5--0-0-----0-0-9-9-7-7--|
A|---------------------------2-0--------------|
E|--------------------------------------------|

G|--------------------------------------------|
D|-5-5--0-0---5-5-7-5-5--0-0-----0-0-6-7------|
A|---------------------------2-0--------------|
E|--------------------------------------------|

G|-7-7---------------------------------------|
D|------6-7---7-7--0-7-0--5-5--7-0-0---------|
A|------------------------------------2-0-2--|
E|-------------------------------------------|


| /  slide up
| \  slide down
| h  hammer-on
| p  pull-off
| ~  vibrato
| +  harmonic
| x  Mute note
===============================================================================
            
Submit corrections

comments powered by Disqus
↑ Back to top | Rolling Stones Bass for Dead Flowers. Lyrics for acoustic guitar and electric guitar. Tablatures and chords are parodies/interpretations of the original songs. You may use it for private study, scholarship, research or language learning purposes only