» » »

Rolling Stones, Blinded By Rainbow Bass tabs (ver.2)

Artists:  A B C D E F G H I J K L M N O P Q R S T U V W X Y Z # 

Blinded By Rainbow Bass tabs (ver.2)

Rolling Stones Tabs
Rating:
0/5 (0 votes)
Blinded By Rainbow lessons Tabs too difficult? Try these video lessons and learn fast
                Intro/1st verse
G--------|------------------------------------------------------|
D--------|------------------------------------------------------|
A--------|------------------------7-5-3-7-10-3-5-6-7-0-3-4-5---0|
E--------|------------------------------------------------------|

G----------------------------------------------------------------------|
D--------0000000---------------000000---------------000000-------------|
A----------------333333---------------333333---------------333333----3~|
E-333333----------------333333---------------333333---------------0~---|

2nd verse
G-----------------------------------------------------------|
D-----------------------------------------------------------|
A------------------------7-5-3-7-7-9-10--2-3-5-6-7---------5|
E--------------------------------------------------0-3-4-5--|

2nd chorus
G---------------------------------------------------------------------|
D--------000000---------------000000---------------000000-------------|
A--------------333333---------------333333---------------333333----3~-|
E-333333---------------333333---------------333333---------------0~---|

Solo/3rd verse
G----------------------------|--------------------------------------------|
D---------------000000-------|------------------------------------------0~|
A--------333333--------333333|-------333333--------333333--------333333---|
E-333333---------------------|000000--------000000--------000000----------|

Third Chorus                x2
G-----------------------------|-----------------------------|
D--------000000---------------|-000000----------------------|
A---------------333333--------|--------333333--------333333-|
E-333333---------------333333-|---------------000000--------|
            

comments powered by Disqus
↑ Back to top | Rolling Stones Bass for Blinded By Rainbow. Lyrics for acoustic guitar and electric guitar. Tablatures and chords are parodies/interpretations of the original songs. You may use it for private study, scholarship, research or language learning purposes only