» » »

Rolling Stones, Bitch Bass tabs (ver.3)

Artists:  A B C D E F G H I J K L M N O P Q R S T U V W X Y Z # 

Bitch Bass tabs (ver.3)

Rolling Stones Tabs
Rating:
0/5 (0 votes)
Bitch lessons Tabs too difficult? Try these video lessons and learn fast
                -----------------------------------------------------------------------------
			b**ch - The Rolling Stones
-----------------------------------------------------------------------------

Tuning: EADG

Intro/Verse:
G|---------------------7-5-*-----------7-5---------------------------------|
D|---5-7-7-5-7-7-5-7-5---------5-7-7-5-----5-7-5---------------------------|
A|-7-------------------------7-------------------7-0-----------------------|
E|-------------------------------------------------------------------------|

Chorus:
G|-------------------------------------------------------------------------|
D|-------------------------------------------------------------------------|
A|-5-5---------5-5-----7-7-------------------------------------------------|
E|-----3-3-5-5-----7-7-----------------------------------------------------|

=============================================================================
| / slide up
| \ slide down
| h hammer-on
| p pull-off
| ~ vibrato
| + harmonic
| x Mute note
=============================================================================
            
Submit corrections

comments powered by Disqus
↑ Back to top | Rolling Stones Bass for Bitch. Lyrics for acoustic guitar and electric guitar. Tablatures and chords are parodies/interpretations of the original songs. You may use it for private study, scholarship, research or language learning purposes only