>
 >
Beast Of Burden 2

Beast Of Burden 2 Bass Tabs

Rolling Stones - Beast Of Burden 2 chords, tabs, tablatures, lyrics

Guitar lessons | Add/correct | Request | Top 50 tabs Artists:  A B C D E F G H I J K L M N O P Q R S T U V W X Y Z 0-9

Beast Of Burden 2 Bass Tabs – Rolling Stones

CD, Sheet music, Poster

Do you like Beast Of Burden 2? Share with your friends now
Bass TabsBass Tabs v2ChordsChords v2Chords v3TabsUkulele
Intro
G|-----------|----------------|---------------|
D|-----------|----------------|---------7---9-| X3
A|-----------|-7----7-7-6---4-|---------------|
E|---5---7---|----------------|---0--5--------|

First Verse
G|----------------|----------------|----------------|----------------|
D|----------------|---------7---9--|----------------|---------7---9--|
A|-7----7-7-6---4-|----------------|-7----7-7-6---4-|----------------|
E|----------------|---0--5---------|----------------|---0--5---------|

G|----------------|----------------|----------------|
D|----------------|---------7---9--|----------------|
A|-7----7-7-6---4-|----------------|-7---7-7-6--X-4-|
E|----------------|---0--5---------|----------------|

Second Verse
G|-----------------|-----------------|----------------|---------------|
D|------------6----|-----7-----------|------------6---|-----7---------|
A|---7----7--------|-----------------|-7------7-------|---------------|
E|----------4----5-|-5------5----5-7-|----------4----4/5------5---5-7-|

G|-----------------|-----------------|----------------|---------------|
D|------------6----|-----------------|------------6---|---------------|
A|---7----X--------|---------------X-|-7----7---------|---------------|
E|----------4----5-|-5----5-5--7-----|----------4---0-|-5-----5-5---7-|

Chorus
G|-----------------|-----------------|----------------|---------------|
D|-------------7---|-------------6---|------------7---|-------------6-|
A|-----------------|-----------6-----|----------7-----|-----------6---|
E|-5-5---5-5-----0-|-4-4---4-4-----0-|-5-5--5-5-----X-|-4-4---4-4-----|

Third Verse
G|-----------------|-----------------|----------------|---------------|
D|--9--9-----------|-----------------|-----7----------|---------6-----|
A|----------7---9--|-7-----7-7-6-----|----------------|-7---7---------|
E|-----------------|---------------5-|-5-----5---5--7-|-------4-----5-|

G|-----------------|-----------------|----------------|
D|-------7---------|------------6----|------7---------|
A|-----------------|-7-----7---------|----------------|
E|--5-------5--5-7-|----------4----5-|-5------5---5-7-|

G|-----------------|-----------------|
D|-----------6-----|-------7---------|
A|---7---7---------|-----------------|
E|---------4-----5-|-5-------5--5--7-|

Chorus
G|-----------------|-----------------|
D|-------------7---|-------------6---|
A|----------/7-----|----------/6-----|
E|-5-----5-5-----0-|-4-4---4-4-----0-|

G|-----------------|-----------------|----------------|---------------|
D|-------------7---|-------------6---|--------------7-|-9-9---9--9-9--|
A|-----------7-----|-----------6-----|---------7-9----|---------------|
E|--5-5---5------0-|-4--4--4--------4/7---7--5--------|-------------9\|

Guitar Solo
G|-----------------|-----------------|----------------|---------------|
D|-----------------|----------7---9--|----------------|---------7---9-|
A|---7----7-7-6--4-|-----------------|-7----7-7-6---4-|---------------|
E|-----------------|------0-5--------|----------------|-----0-5-------|

G|-----------------|-----------------|----------------|---------------|
D|-----------------|----------7---9--|----------------|---------7---9-|
A|---7----7-7-6--4-|-----------------|-7----7-7-6---4-|---------------|
E|-----------------|------0-5--------|----------------|-----0-5-------|

Interlude
G|-----------------|-----------------|----------------|
D|-----------------|-----------------|----------6-----|
A|---7----7-7-9----|-----------------|-7--------------|
E|---------------4-|-4-----5---5---7-|--------4-----5-|

G|-----------------|-----------------|----------------|---------------|
D|-----------------|----------6------|------7---------|----------6----|
A|-----------------|-7----7----------|----------------|-7----7--------|
E|---5----5-5----7-|--------4------5-|-5------5---5-7-|--------4----5-|

Fourth Verse
G|-----------------|-----------------|----------------|---------------|
D|------7----------|-----------------|---------7----9-|---------------|
A|-----------------|-7------7-7-6--4-|--4-------------|-7---7-7-6---4-|
E|--5-----5--5--7--|-----------------|----0--5--------|---------------|

G|-----------------|-----------------|----------------|---------------|
D|-----------7---9-|-----------------|---------7----9-|---------------|
A|--(4)------------|-7------7-7-6--4-|--4-------------|-7---7-7-6---4-|
E|-------0-5-------|-----------------|----0--5--------|---------------|

Fifth Verse
G|-----------------|-----------------|----------------|---------------|
D|-----------7--/9-|-----------------|---7------------|---------6-----|
A|--(4)------------|-7--7-----7---7--|----------------|-7----7--------|
E|-------0-5-------|-----------------|-5---X-5--5-6-7-|--------4----5-|

G|-----------------|-----------------|----------------|---------------|
D|-----------7--/9-|------------6----|----------------|----------6----|
A|-----------------|-7------7--------|----------------|-7----7--------|
E|--5-----5--------|----------4----5-|-5----5--5-5--7-|--------4------|

G|-----------------|-----------------|----------------|---------------|
D|--------7--------|-----------------|---------7---/9-|---------------|
A|-----------------|-7-----7-6H7-6-4-|----------------|-7---7-6H7---4-|
E|--5-------5--5-7-|-----------------|-----X-5--------|---------------|

G|-----------------|-----------------|----------------|---------------|
D|------------7-/9-|-----------------|-----------7--9-|---------------|
A|----4------------|-7-----7-6-7---4-|-4--4-----------|-7---7-6-7---4-|
E|--------5--------|-----------------|------0--5------|---------------|

Outro
G|-----------------|-----------------|----------------|---------------|
D|------------7--9-|-----------6-----|-----7----------|-----------6---|
A|---4--4----------|-7--7------------|----------------|-7----7--------|
E|--------0-5------|------0--4-----5-|-5-----5--5-6-7-|---------4-----|

G|-----------------|-----------------|----------------|---------------|
D|--------7--------|----------6------|------7---------|-----------6---|
A|-----------------|-7----X----------|----------------|-7----X--------|
E|---5------5--5H7-|--------4--------|-5------5---5H7-|---------4-----|

G|-----------------|-----------------|----------------|---------------|
D|------7----------|-----------------|---------7----9-|---------------|
A|-----------------|-7-X--7-6-7----4-|---4------------|-7---7-7-6---4-|
E|---5----X-5--5H7-|-----------------|-----0-5--------|---------------|

G|-----------------|-----------------|----------------|---------------|
D|------------7--9-|-----------------|---------7----9-|---------------|
A|-(4)--4----------|-7------7-7-6--4-|---4------------|-7---7-7-6---4-|
E|--------0-5------|-----------------|-----0-5--------|---------------|

G|-----------------|-----------------|----------------|---------------|
D|----------7-6--9-|-----------6-----|------7---------|----------6----|
A|-(4)--4----------|-7---7-----------|----------------|-7----7--------|
E|--------X--------|--------4------5-|-5------5---5-7-|--------4----5-|
                                                        BEGIN FADE
G|-----------------|-----------------|----------------|---------------|
D|-----------------|-----------------|----------7--/9-|---------------|
A|-----------------|-7----7-6H7-6-4--|-----4----------|-7----7-6--6-4-|
E|-5-----5-----5H7-|-----------------|-------X--------|---------------|

G|-----------------|-----------------|----------------|---------------|
D|-------7---------|-----------6-----|-------7--------|---------6-----|
A|---4-------------|-7-----7---------|----------------|-7-------------|
E|---------5---5H7-|---------4-----5-|---------5--5H7-|-------4-----5-|
  FADE OUT
G|-----------------|
D|-----------------|
A|-----------------|
E|--5------5----5--|





Comments


Popular Rolling Stones tabs & chords
All About You Chords
Going To A Go Go Chords
I Got The Blues 1 Chords
Shattered Chords
Lies Tabs
Love In Vain 1 Tabs
Midnight Rambler Intro Tabs
Route 66 Tabs
Street Fighting Man Tabs
Sympathy For The Devil 5 Tabs


Song lyrics



↑ Back to top | Tablatures and chords are parodies/interpretations of the original songs. You may use it for private study, scholarship, research or language learning purposes only
© 2014 AZChords.com Contact us | Privacy policy | DMCA | Add/correct tabs | Request tabs | Top 50 tabs