>
 >
As Tears Go By 1

As Tears Go By 1 Guitar Tabs

Rolling Stones - As Tears Go By 1 chords, tabs, tablatures, lyrics

Guitar lessons | Add/correct | Request | Top 50 tabs Artists:  A B C D E F G H I J K L M N O P Q R S T U V W X Y Z 0-9

As Tears Go By 1 Guitar Tabs – Rolling Stones

CD, Sheet music, Poster

Do you like As Tears Go By 1? Share with your friends now
ChordsChords v2Chords v3Chords v4Chords v5Chords v6Chords v7TabsTabs v2Tabs v3Ukulele

Chords: G, A,  C  D

The intro is the same as the verse. Play it 2 times.

Repeat this part 2 times

         It is the        evening of the    da-----------

 G                        A                  C

|--------3-------3------|-----------0-----|0---------0-----0--|
|-------------0----0----|-------3-----3---|-------1---------1-|
|-----------0---------0-|-----3---------3-|-0---0-------------|
|-----------------------|---3-------------|-----------0-2-----|
|-----------------------|-0---------------|---3---------------|
|-0-3-------------------|-----------------|-------------------|


---------y
 D         Dsus2 D

|--------2---0----2-----|
|------3------------3---|
|----2----------------2-|
|-0----------0---0------|
|-----------------------|
|-----------------------|


After second repeat switch to the following:


    smiling faces  I can se-----e      but not for      me
 C                 D       Dsus4 D     G               Em        Em7

|------------0----|-------2--0---2----|------3---------|----0---------|
|---------1-----1-|-----3----------3--|----0---0-------|---0----------|
|------0----------|---2--------------2|--0-------0---0-|--0-----0---0-|
|-----------------|-0-----------------|------------0---|------2---0---|
|--3--------------|-------------------|----------------|-2------------|
|-----------------|-------------------|-3--------------|--------------|


  I  sit   and    watch as tears go    by
 C                                     D       Dsus4 D Dsus4
|---------0-----------------0------0-|-------2---0---2----0---|
|-------1---1-------------1---1------|-----3----------------3-|
|-----0-------0---0-----0-------0----|---2--------------------|
|--------------2------------------2--|-0----------------------|
|-3-----------------3----------------|------------------------|
|------------------------------------|------------------------|

G, A, C, D

Chorus

    It is the   evening of the   day.
  G           A                C      D
|-2-----------0----------------0------2----|
|-0-----------2----------------1------3----|
|-0-----------2----------------0------2----|
|-0-----------2----------------2------0----|
|-2-----------0----------------3-----------|
|-3----------------------------0-----------|

    I sit and   watch the children   play.
  G           A                    C       D
|-3-----------0--------------------0-------2--|
|-0-----------2--------------------1-------3--|
|-0-----------2--------------------0-------2--|
|-0-----------2--------------------2-------0--|
|-2-----------0--------------------3----------|
|-3--------------------------------0----------|
    Smiling faces   I can see,  but not for    me.
  C               D           G             Em 
|-0---------------2-----------3-------------0------|
|-1---------------3-----------0-------------0------|
|-0---------------2-----------0-------------0------|
|-2---------------0-----------0-------------2------|
|-3---------------------------2-------------2------|
|-0---------------------------3-------------0------|

    I sit and watch as tears    go   by.
  C                          Em    D
|-0--------------------------0-----2------------|
|-1--------------------------0-----3------------|
|-0--------------------------0-----2------------|
|-2--------------------------2-----0------------|
|-3--------------------------2------------------|
|-0--------------------------0------------------|
    My riches   can't buy every   thing.
  G           A                 C        D
|-3-----------0-----------------0--------2------|
|-0-----------2-----------------1--------3------|
|-0-----------2-----------------0--------2------|
|-0-----------2-----------------2--------0------|
|-2-----------0-----------------3---------------|
|-3-----------------------------0---------------|
    I want to    hear the children    sing.
  G            A                    C       D
|-3------------0--------------------0-------2---|
|-0------------2--------------------1-------3---|
|-0------------2--------------------0-------2---|
|-0------------2--------------------2-------0---|
|-2------------0--------------------3-----------|
|-3---------------------------------0-----------|
    All I hear    is the sound    of rain falling    on the ground
  C            D               G                  Em
|-0------------2---------------3------------------0-----------------|
|-1------------3---------------0------------------0-----------------|
|-0------------2---------------0------------------0-----------------|
|-2------------0---------------0------------------2-----------------|
|-3----------------------------2------------------2-----------------|
|-0----------------------------3------------------0-----------------|
    I sit and watch as tears    go    by.
  C                          Em    D
|-0--------------------------0-----2----------|
|-1--------------------------0-----3----------|
|-0--------------------------0-----2----------|
|-2--------------------------2-----0----------|
|-3--------------------------2----------------|
|-0--------------------------0----------------|

Solo (the same as the intro)

Chorus

    It is the   evening of the   day.
  G           A                C      D
|-2-----------0----------------0------2----|
|-0-----------2----------------1------3----|
|-0-----------2----------------0------2----|
|-0-----------2----------------2------0----|
|-2-----------0----------------3-----------|
|-3----------------------------0-----------|

    I sit and   watch the children   play.
  G           A                    C       D
|-3-----------0--------------------0-------2--|
|-0-----------2--------------------1-------3--|
|-0-----------2--------------------0-------2--|
|-0-----------2--------------------2-------0--|
|-2-----------0--------------------3----------|
|-3--------------------------------0----------|
    Smiling faces   I can see,  but not for    me.
  C               D           G             Em 
|-0---------------2-----------3-------------0------|
|-1---------------3-----------0-------------0------|
|-0---------------2-----------0-------------0------|
|-2---------------0-----------0-------------2------|
|-3---------------------------2-------------2------|
|-0---------------------------3-------------0------|

    I sit and watch as tears    go   by.
  C                          Em    D
|-0--------------------------0-----2------------|
|-1--------------------------0-----3------------|
|-0--------------------------0-----2------------|
|-2--------------------------2-----0------------|
|-3--------------------------2------------------|
|-0--------------------------0------------------|
    My riches   can't buy every   thing.
  G           A                 C        D
|-3-----------0-----------------0--------2------|
|-0-----------2-----------------1--------3------|
|-0-----------2-----------------0--------2------|
|-0-----------2-----------------2--------0------|
|-2-----------0-----------------3---------------|
|-3-----------------------------0---------------|
    I want to    hear the children    sing.
  G            A                    C       D
|-3------------0--------------------0-------2---|
|-0------------2--------------------1-------3---|
|-0------------2--------------------0-------2---|
|-0------------2--------------------2-------0---|
|-2------------0--------------------3-----------|
|-3---------------------------------0-----------|
    All I hear    is the sound    of rain falling    on the ground
  C            D               G                  Em
|-0------------2---------------3------------------0-----------------|
|-1------------3---------------0------------------0-----------------|
|-0------------2---------------0------------------0-----------------|
|-2------------0---------------0------------------2-----------------|
|-3----------------------------2------------------2-----------------|
|-0----------------------------3------------------0-----------------|
    I sit and watch as tears    go    by.
  C                          Em    D
|-0--------------------------0-----2----------|
|-1--------------------------0-----3----------|
|-0--------------------------0-----2----------|
|-2--------------------------2-----0----------|
|-3--------------------------2----------------|
|-0--------------------------0----------------|

Outro

  [G]  [A]  [C]  [D]

  [G]  [A]  [C]  [D]





Comments


Popular Rolling Stones tabs & chords
Paint It Black Bass Tabs
Jiving Sister Fanny Chords
Not Fade Away 1 Chords
Drift Away Tabs
Melody Tabs
Mother's Little Helper Tabs
Under The Boardwalk Tabs
All Over Now Ukulele
Cant You Hear Me Knocking Ukulele
Dead Flowers Ukulele


Song lyrics



↑ Back to top | Tablatures and chords are parodies/interpretations of the original songs. You may use it for private study, scholarship, research or language learning purposes only
© 2014 AZChords.com Contact us | Privacy policy | DMCA | Add/correct tabs | Request tabs | Top 50 tabs