» » »

Rolling Stones, 2000 Man Tabs (ver.1)

Artists:  A B C D E F G H I J K L M N O P Q R S T U V W X Y Z # 

2000 Man Tabs (ver.1)

Rolling Stones Tabs
 Rating:
4/5 (8 votes)
2000 Man lessons Tabs too difficult? Try these video lessons and learn fast
                2000 man intro tab ( ROLLING STONES )

Well, this is a transcription only by my memory, could be any errors ( above all on the chord repeat )
sorry


intro
	   x9	      E                       x9  		E7
                                  
e---0-0----0----------0-0---------|----0-0----0----------0-0-0----0|           
b---2-3----5---5--5---0-0--2-3-3-2|----2-3----5---5--5---2-2-2--3-2|             
g----------6---7--6---1-1--1-1-1-1|-----------6---7--6---1-1-1--1-1|           
d----------7---7--7---2-2---------|-----------7---7--7---2-2-2--2-2|         
a---------------------2-2--2-2-2-2|----------------------2-2-2--2-2|           
e-------------------------------- |--------------------------------|           

          D (x9)           E

e---------2-------2-2-2-0--0
b--3--5---3-------2-2-3-3--0  
g---------2-------3-3-2-2--1     
d---------0----------------2
a--------------------------2
e--------------------------0

...intro for 1 time and start to sing...

    A                   E7               A
Well my name is a number, a piece of plastic film
(A)                           E7            A
And I grow tiny flowers in my little window sill


submitted by

Ottavio Augusto

ciao
            
Submit corrections

comments powered by Disqus
↑ Back to top | Rolling Stones Tabs for 2000 Man. Lyrics for acoustic guitar and electric guitar. Tablatures and chords are parodies/interpretations of the original songs. You may use it for private study, scholarship, research or language learning purposes only