» » »

Rojo, Eres Todo Poderoso Tabs (ver.1)

Artists:  A B C D E F G H I J K L M N O P Q R S T U V W X Y Z # 

Eres Todo Poderoso Tabs (ver.1)

Rojo Tabs
 Rating:
4.2/5 (5 votes)
Eres Todo Poderoso lessons Tabs too difficult? Try these video lessons and learn fast
                                                                             
e ----------------------10-9----10-9---10-9-10-9----10-9----10-9-----|
b ---------------------------10-----10----------10-------10----------|
g --7--9--11--7--9--11-----------------------------------------------|
d -------------------------------------------------------------------|
a -------------------------------------------------------------------|
E--------------------------------------------------------------------| 
                                                            
e ----------------------10-9---10-9---10-9-10-9---10-9---10-9------|
b ---------------------------10-----10----------10-----10-----10/12|
g --7--9--11--7--9--11---------------------------------------------|
d -----------------------------------------------------------------|
a -----------------------------------------------------------------|
E -----------------------------------------------------------------|

verso
e ----2-2----3-3----2-2----0-0----2-2----3-3----2-2----0-0--------|
b ----3-3----3-3----3-3----2-2----3-3----3-3----3-3----2-2--------|
g ----4-4----0-0----2-2----2-2----4-4----0-0----2-2----2-2--------|
d ----4-4----0-0----0-0----2-2----4-4----0-0----0-0----2-2--------|
a ----2-2----2-2-----------0-0----2-2----2-2-----------0-0--------|
E -----------3-3-------------------------3-3----------------------|
  
e ----2--2----3--3----2--2----0--0----2--2----3--3----2--2----0-0-0-0------|
b ----3--3----3--3----3--3----2--2----3--3----3--3----3--3----2-2-2-2------|
g ----4--4----0--0----2--2----2--2----4--4----0--0----2--2----2-2-2-2------|
d ----4--4----0--0----0--0----2--2----4--4----0--0----0--0----2-2-2-2------|
a ----2--2----2--2------------0--0----2--2----2--2------------0-0-0-0------|
E ------------3--3----------------------------3--3-------------------------|

coro
e ----2222222233333333222222220000000022222222333333332222222200000000----|
b ----3333333333333333333333332222222233333333333333333333333322222222----|
g ----4444444400000000222222222222222244444444000000002222222222222222----|
d ----4444444400000000000000002222222244444444000000000000000022222222----|
a ----2222222222222222--------000000002222222222222222--------00000000----|
E ------------33333333------------------------33333333--------------------|

solo
e ------------------------------------------------------|
b ----------------------------------------------8/10----|
g ---/11-11-11-9-9-9-7-7-7-11-11-11-9-9-9-7-7-7------7/9|
d ------------------------------------------------------|
a ------------------------------------------------------|
E ------------------------------------------------------|

e ---10--12---15/17-19---17-14------------------------------------|
b ---------11---------15------15--15--17-15-14--------------------|
g -11--11-----------------------14--16--------16-14---------------|
d -------------------------------------------------16-14-12--12---|
a ---------------------------------------------------------14--14-|
E ----------------------------------------------------------------|

enjoy it and God bless you!! 
n78899
            
Submit corrections

comments powered by Disqus
↑ Back to top | Rojo Tabs for Eres Todo Poderoso. Lyrics for acoustic guitar and electric guitar. Tablatures and chords are parodies/interpretations of the original songs. You may use it for private study, scholarship, research or language learning purposes only