» » »

Rocky Votolato, The City Is Calling Tabs (ver.1)

Artists:  A B C D E F G H I J K L M N O P Q R S T U V W X Y Z # 

The City Is Calling Tabs (ver.1)

Rocky Votolato Tabs
 Rating:
3.6/5 (5 votes)
The City Is Calling lessons Tabs too difficult? Try these video lessons and learn fast
1
                ------------------------------------------------------------------------
------------------------------------------------------------------------

Tuning:EADGBE (Capo I)

  1st Verse
 the city is calling everybody is searching for the keys 
e|------3-------3-------8-------3--------------------------------------|
B|----3-------3-------8-------3----3--1--------------------------------|
G|--0-------2-------7-------0------------------------------------------|
D|---------------------------------------------------------------------|
A|---------------------------------------------------------------------|
E|---------------------------------------------------------------------|

  to all the prisons that the cruel and kind intention can create 
e|------3-------3-------8-------3--------------------------------------|
B|----3-------3-------8-------3----3--1--------------------------------|
G|--0-------2-------7-------0------------------------------------------|
D|---------------------------------------------------------------------|
A|---------------------------------------------------------------------|
E|---------------------------------------------------------------------|

  the boys and girls of winter gather at the end of November 
e|------3-------3-------8-------3--------------------------------------|
B|----3-------3-------8-------3----3--1--------------------------------|
G|--0-------2-------7-------0------------------------------------------|
D|---------------------------------------------------------------------|
A|---------------------------------------------------------------------|
E|---------------------------------------------------------------------|

  to drink the drops of joys and sorrows from each others dripping trees 
e|------3-------3-------8-------3--------------------------------------|
B|----3-------3-------8-------3------------------------------3--1--0---|
G|--0-------2-------7-------0----------------------------------------2-|
D|---------------------------------------------------------------------|
A|---------------------------------------------------------------------|
E|---------------------------------------------------------------------|



G                                 C         
All of life's secrets are in your branches
D                                            C
Make sure it's the truth before you write it down kids
G                                      C  
Stare at the kiss-marks on a Spiderman notebook
                   D                            C
Waxy sweetness, to explore every degree of your mental health




  Guitar Break
e|---------------------------------------------------------------------|
B|---1/3-1-0---------0-0-----------------------------------------------|
G|-----------2---0-2-----2-0-------------------------------------------|
D|-------------0-------------2-0---------------------------------------|
A|-------------------------------3-------------------------------------|
E|-3-------------------------------------------------------------------|

e|---------------------------------------------------------------------|
B|---1/3-1-0---------0-0----------1/3------1/3-1-0---------------------|
G|-----------2---0-2-----2-0-------------------------------------------|
D|-------------0----------------2--------2-----------------------------|
A|----------------------------3--------3-------------------------------|
E|-3-------------------------------------------------------------------|


  2nd Verse

  Much better to pass into that other world 
e|------3-------3-------8----------------------------------------------|
B|----3-------3-------8-------3--1h3-1-0-------------------------------|
G|--0-------2-------7-------0------------2-----------------------------|
D|---------------------------------------------------------------------|
A|---------------------------------------------------------------------|
E|---------------------------------------------------------------------|

  In the full glory of the passions that you found here 
e|------3-------3-------8----------------------------------------------|
B|----3-------3-------8-------3--1h3-1-0-------------------------------|
G|--0-------2-------7-------0------------2-----------------------------|
D|---------------------------------------------------------------------|
A|---------------------------------------------------------------------|
E|---------------------------------------------------------------------|

  Than to fade and wither with age 
e|------3-------3-------8----------------------------------------------|
B|----3-------3-------8-------3--1h3-1-0-------------------------------|
G|--0-------2-------7-------0------------2-----------------------------|
D|---------------------------------------------------------------------|
A|---------------------------------------------------------------------|
E|---------------------------------------------------------------------|

  From watching the flickering light dim in the eyes of the living
e|------3-------3-------8-------3------3-------------------------------|
B|----3-------3-------8-------3------3-----1h3-1-0---------------------|
G|--0-------2-------7-------0------0---------------2-------------------|
D|---------------------------------------------------------------------|
A|---------------------------------------------------------------------|
E|---------------------------------------------------------------------|


G                                 C         
All of life's secrets are in your branches
D                                            C
Make sure it's the truth before you write it down kids
G                                      C  
Stare at the kiss-marks on a Spiderman notebook
                   D                            C
Waxy sweetness, to explore every degree of your mental health
G                                          C
Save up all of your innocence and grow the ripe fruit
   D                             C
To explore every degree of your mental health




  Guitar Break
e|---------------------------------------------------------------------|
B|---1/3-1-0---------0-0-----------------------------------------------|
G|-----------2---0-2-----2-0-------------------------------------------|
D|-------------0-------------2-0---------------------------------------|
A|-------------------------------3-------------------------------------|
E|-3-------------------------------------------------------------------|

e|---------------------------------------------------------------------|
B|---1/3-1-0---------0-0----------1/3------1/3-1-0---------------------|
G|-----------2---0-2-----2-0-------------------------------------------|
D|-------------0----------------2--------2-----------------------------|
A|----------------------------3--------3-------------------------------|
E|-3-------------------------------------------------------------------|



| /  slide up
| \  slide down
| h  hammer-on
| p  pull-off
| ~  vibrato
| +  harmonic
| x  Mute note
===============================================================================
            
Submit corrections

comments powered by Disqus
↑ Back to top | Rocky Votolato Tabs for The City Is Calling. Lyrics for acoustic guitar and electric guitar. 1 Tablatures and chords are parodies/interpretations of the original songs. You may use it for private study, scholarship, research or language learning purposes only