» » »

Rocky Votolato, Montana Chords (ver.1)

Artists:  A B C D E F G H I J K L M N O P Q R S T U V W X Y Z # 

Montana Chords (ver.1)

Rocky Votolato Tabs
Rating:
5/5 (4 votes)
Montana lessons Tabs too difficult? Try these video lessons and learn fast
                ----------------------------------------------------------------------------
                             Rocky Votolato - Montana
----------------------------------------------------------------------------
Tuning: down half step Eb-Ab-C#-F#-Bb-Eb

D       A         G 
driving north on 35 heading into the night 
D    A              G
the suns getting easier for me to look at
D    A              G
Been singing these songs about you Montana for
D   A            G
so long without ever even knowing it 
Em                        Bm
the things that you can't see 
Em                 Bm
if you look you'll find 
Em               Bm
they'll deliver everything
Em                       A
somewhere somehow I got everything backwards


D        A                G
D  A              G
ambition sets the pistons on fire 
D            A         G
and when you feel the distance in an empty bed 
            D                    A          G                           Em  
lord you'll know that you're the woman of a hard working guitar pickin' man 
Bm G A
Bm          A                G
you know my dream has always been 
  Em
a freight train leaving town 
Bm        A                G                   Em
I grew up small town but I always knew I'd get out of that somehow 
Bm         A                 G               Em
I'm barely breathing on this stage but it's keeping me alive 
Bm                  A      G
there's nowhere I'd rather be 
              Em              A        Bm   A G Em   Bm A G   Em  A
than on my way home to you tonight  he heh


D       A         G
driving north on 35 heading into the night 
D    A              G
the suns getting easier for me to look at 
D     A           G
maybe Memphis TN, maybe New Orleans
D     A          G
maybe Arizona, I guess we'll see



here's the little picking part... the best i could figure it out.


eb|-2--0-2-0---------------3---3------------------|
Bb|-3--3-3-2-2-2/5-5-5bend-0---3------------------|
Gb|-2--2-2-2-2-------------0---0------------------|
Db|-0--0-0-2---------------0---0-----0h2-2h4p2p0--|
Ab|--------0---------------2---2-0h2--------------|
Eb|------------------------3-3-3------------------|


eb|------0-2-2----------------3---3------------------|
Bb|---3--3-3-3--2-2/5-5-5bend-0---3------------------|
Gb|--2-2-----2---2------------0---0------------------|
Db|-0--------0-2--------------0---0-----0h2-2h4p2p0--|
Ab|---------------------------2---2-0h2--------------|
Eb|---------------------------3-3-3------------------|

| /  slide up
| B  hammer-on
| p  pull-off


Good road song. Tell me what you think, if you want. Rocky Rocks!
            

comments powered by Disqus
↑ Back to top | Rocky Votolato Chords for Montana. Lyrics for acoustic guitar and electric guitar. Tablatures and chords are parodies/interpretations of the original songs. You may use it for private study, scholarship, research or language learning purposes only