» » »

Rocky Votolato, Silver Trees Tabs (ver.1)

Artists:  A B C D E F G H I J K L M N O P Q R S T U V W X Y Z # 

Silver Trees Tabs (ver.1)

Rocky Votolato Tabs
 Rating:
4/5 (4 votes)
Silver Trees lessons Tabs too difficult? Try these video lessons and learn fast
1
                Jacob K.
Capo 3rd fret

Fingerpick along.. I'll show you the chords with hammer-ons to help you out.

Verse
e|----X--X--------1------------------X--------------X----------------|
B|----1--0--------1------------------3--------------1----------------|
G|--0h2--0-------0h2-----------------0--------------0----------------|
D|----2--0--------3------------------0--------------2----------------|
A|--0-0--X--------3-----------------0h2-------------3----------------|
E|----X--3--------1------------------3--------------X----------------|
       I hear you call me - branches break in the wind   

e|----X------------X----------1---------------------X-------------|
B|----1------------0----------1---------------------3-------------|
G|--0h2------------0---------0h2--------------------0-------------|
D|----2------------0----------3---------------------0-------------|
A|--0-0------------X----------3--------------------0h2------------|
E|----X------------3----------1---------------------3-------------|
       through the leaves and concrete you're gonna grow 

e|----------X--------------X-----------X-----X---------------|
B|----------1--------------1-----------1-----1---------------|
G|----------0--------------0-----------2-----2---------------|
D|----------2--------------0-----------2-----2---------------|
A|----------3--------------2-----------0-----X---------------|
E|----------X--------------X-----------X-----0---------------|
       into something that death can't steal

e|--------1-----------X------X-------X-------X------X--------|
B|--------1-----------3------1-------1-------1------1--------|
G|--------2-----------0------0-------0-------2------2--------|
D|--------3-----------0------2-------0-------2------2--------|
A|--------3----------0h2-----3-------2-------0------X--------|
E|--------1-----------3------X-------X-------X------0--------|
        a garden that gives, sprouts come up glowing

e|------2---------X----------------1------X--------1------------X----|
B|------1---------3-------------0--1------1--------1------------3----|
G|------2---------0---2---3--------2------2--------2------------0----|
D|------0---------0----------------3------2--------3------------0----|
A|------0---------X----------------3------0--------3-----------0h2---|
E|------X---------3----------------1------X--------1------------3----|
        fruits of jade and golden  silver trees to mark the legacy

e|------------X---X----X----X-----1-------X--------X---------|
B|------------1---3----3>5--3-----1-------3--------1---------|
G|------------0---0----0----0----0h2------0--------0---------|
D|------------2---0----0----0-----3-------0--------2---------|
A|------------3---2----0----X-----3------0h2-------3---------|
E|------------X---X----X----3-----1-------3--------X---------|
        of a life that finally   learned what this means

Play x2 With Harmonica
e|----X--X-------1-----------X--------------------X----------|
B|----1--0-------1-----------3--------------------1----------|
G|--0h2--0------0h2----------0--------------------0----------|
D|----2--0-------3-----------0--------------------2----------|
A|--0-0--X-------3----------0h2-------------------3----------|
E|----X--3-------1-----------3--------------------X----------|

e|-------X----X--------1-----------------X----------X----------|
B|-------1----0--------1-----------------3----------1----------|
G|-----0h2----0-------0h2----------------0----------0----------|
D|-------2----0--------3-----------------0----------2----------|
A|-----0-0----X--------3----------------0h2---------3----------|
E|-------X----3--------1-----------------3----------X----------|
         the invisible choir sings you a voiceless lesson

e|-----X-----------X--------1-----------------X--------------|
B|-----1-----------0--------1-----------------3--------------|
G|---0h2-----------0-------0h2----------------0--------------|
D|-----2-----------0--------3-----------------0--------------|
A|---0-0-----------X--------3----------------0h2-------------|
E|-----X-----------3--------1-----------------3--------------|
         so you'll always remember what grew out

e|---------------X---------X-----------X-----X---------------|
B|---------------1---------1-----------1-----1---------------|
G|---------------0---------0-----------2-----2---------------|
D|---------------2---------0-----------2-----2---------------|
A|---------------3---------2-----------0-----X---------------|
E|---------------X---------X-----------X-----0---------------|
         of decisions that death can't steal
         
e|--------1--------------------X----X-------X----------------X------X--------|
B|--------1--------------------3----1-------1----------------1------1--------|
G|--------2--------------------0----0-------0----------------2------2--------|
D|--------3--------------------0----2-------0----------------2------2--------|
A|--------3-------------------0h2---3-------2----------------0------X--------|
E|--------1--------------------3----X-------X----------------X------0--------|
         lives that learned to give when it seemed there was nothing

e|-----------2----------------X--------------1---------X---------------1--------------X----|
B|-----------1----------------3-----------0--1---------1---------------1--------------3----|
G|-----------2----------------0-----2--3-----2---------2---------------2--------------0----|
D|-----------0----------------0--------------3---------2---------------3--------------0----|
A|-----------0----------------X--------------3---------0---------------3-------------0h2---|
E|-----------X----------------3--------------1---------X---------------1--------------3----|
         oh, how much more it meant to those around we go - there's a rhythm soft and slow

e|--------------X--X---X----X---1------------X------X---------|
B|--------------1--3---3>5--3---1------------3------1---------|
G|--------------0--0---0----0--0h2-----------0------0---------|
D|--------------2--0---0----0---3------------0------2---------|
A|--------------3--2---0----X---3-----------0h2-----3---------|
E|--------------X--X---X----3---1------------3------X---------|
         you'll always hear the choir if you listen close

Play With Harmonica
e|----X--X-------1-----------X--------------------X----------|
B|----1--0-------1-----------3--------------------1----------|
G|--0h2--0------0h2----------0--------------------0----------|
D|----2--0-------3-----------0--------------------2----------|
A|--0-0--X-------3----------0h2-------------------3----------|
E|----X--3-------1-----------3--------------------X----------|

e|----X--X-------1-----------X----X--X---X----X---1------------X------X------|
B|----1--0-------1-----------3----1--3---3>5--3---1------------3------1------|
G|--0h2--0------0h2----------0----0--0---0----0--0h2-----------0------0------|
D|----2--0-------3-----------0----2--0---0----0---3------------0------2------|
A|--0-0--X-------3----------0h2---3--2---0----X---3-----------0h2-----3------|
E|----X--3-------1-----------3----X--X---X----3---1------------3------X------|

Pluck the C chord till the end.
            
Submit corrections

comments powered by Disqus
↑ Back to top | Rocky Votolato Tabs for Silver Trees. Lyrics for acoustic guitar and electric guitar. 1 Tablatures and chords are parodies/interpretations of the original songs. You may use it for private study, scholarship, research or language learning purposes only