» » »

Rocket Summer, Tara Im Terrible Tabs (ver.2)

Artists:  A B C D E F G H I J K L M N O P Q R S T U V W X Y Z # 

Tara Im Terrible Tabs (ver.2)

Rocket Summer Tabs
Rating:
0/5 (0 votes)
Tara Im Terrible lessons Tabs too difficult? Try these video lessons and learn fast
                This song is in Drop C#, or Drop Db tuning.

I think it's easier with two guitars. Gtr 1 has a capo on the 9th fret.


                           Section 1
Gtr. 1
-------0---------1-------0--------1-------0---------1----0--0--------1-----|
---------------------------------------------------------------------------|
----0-----0-0/2----2-0-----0-0/2-----2-0-----0-0/2-----2-0----0-0/2-----2--|
---------------------------------------------------------------------------|
---------------------------------------------------------------------------|
---------------------------------------------------------------------------| 3x

Gtr. 2
--------------------------------------------------------------------|
--------------------------------------------------------------------|
--------------------------------------------------------------------|
--------------------------------------------------------------------|
----0-0-0-0---------0-0-0-0---------0-0-0-0-------------2-----------|
------------0-0-0-0---------0-0-0-0---------0-0-0-0-2-2---2-0-0-0-0-| 3x

                            Section 2
                    (Gtr. 1 does not play here.)

Gtr. 2                                             *
---------------------------------------------------|-------------------------|
---------------------------------------------------|-------------------------|
---------------------------------------------------|-------------------------|
----4--4--4-4-4-0--0--0-0-0-7--7--7-7-7-0--0--0-0-0|7--7--7-7-7-0--0--0-0-0--|
----4--4--4-4-4-0--0--0-0-0-7--7--7-7-7-0--0--0-0-0|7--7--7-7-7-0--0--0-0-0--|
----4--4--4-4-4-0--0--0-0-0-7--7--7-7-7-0--0--0-0-0|7--7--7-7-7-0--0--0-0-0--|

Gtr. 2
-----------------------------------------------------------------------------|
-----------------------------------------------------------------------------|
-----------------------------------------------------------------------------|
----7--7--7-7-7-0--0--0-0-0-7--7--7-7-7-0--0--0-0-0-7--7--7-7-7-0--0--0-0-0--|
----7--7--7-7-7-0--0--0-0-0-7--7--7-7-7-0--0--0-0-0-7--7--7-7-7-0--0--0-0-0--|
----7--7--7-7-7-0--0--0-0-0-7--7--7-7-7-0--0--0-0-0-7--7--7-7-7-0--0--0-0-0--|

Gtr.2                       *
----------------------------|
----------------------------|
----------------------------|
----7--7--7-7-7-0--0--0-0-0-|
----7--7--7-7-7-0--0--0-0-0-|
----6--6--6-6-6-0--0--0-0-0-| (Repeat from * to * one time.)

Repeat section 1 and 2.

                            Section 3
                    (Gtr. 1 does not play here.)

Gtr. 2
-------------------------------------------------------------------------------------------------|
-------------------------------------------------------------------------------------------------|
-------------------------------------------------------------------------------------------------|
-4--4--4-4-4-4--4--4-4-4-0--0--0-0-0-0--0--0-0-0-7--7--7-7-7-7--7--7-7-7-2--2--2-2-2-4--4--4-4-4-|
-4--4--4-4-4-4--4--4-4-4-0--0--0-0-0-0--0--0-0-0-7--7--7-7-7-7--7--7-7-7-2--2--2-2-2-4--4--4-4-4-|
-4--4--4-4-4-4--4--4-4-4-0--0--0-0-0-0--0--0-0-0-7--7--7-7-7-7--7--7-7-7-2--2--2-2-2-3--3--3-3-3-|

Gtr. 2
------------------------------------------------------------|
------------------------------------------------------------|
------------------------------------------------------------|
----4--4--4-4-4-4--4--4-4-4-0--0--0-0-0-0--0--0-0-0-2-----0-|
----4--4--4-4-4-4--4--4-4-4-0--0--0-0-0-0--0--0-0-0-2-----0-|
----4--4--4-4-4-4--4--4-4-4-0--0--0-0-0-0--0--0-0-0-2-----0-|

                              Outro

Gtr. 1
-------0---------1-------3--------1-------0---------1--------3--------1----0--|
------------------------------------------------------------------------------|
----0-----0-0/2----2-2/4---4-4/2-----2-0-----0-0/2-----2-2/4---4-4/2----2--0--|
------------------------------------------------------------------------------|
------------------------------------------------------------------------------|
------------------------------------------------------------------------------|

Gtr. 2
------------------------------------------------------------------------|
------------------------------------------------------------------------|
------------------------------------------------------------------------|
---------------------------------------------------------------------7--|
----0-0-0-0-------------------------0-0-0-0--------------------------7--|
------------0-0-0-0-2-2-2-2-0-0-0-0---------0-0-0-0-2-2-2-2-0-0-0-0--7--|
            

comments powered by Disqus
↑ Back to top | Rocket Summer Tabs for Tara Im Terrible. Lyrics for acoustic guitar and electric guitar. Tablatures and chords are parodies/interpretations of the original songs. You may use it for private study, scholarship, research or language learning purposes only