» » »

Robert Plant, Song To The Siren Chords (ver.1)

Artists:  A B C D E F G H I J K L M N O P Q R S T U V W X Y Z # 

Song To The Siren Chords (ver.1)

Robert Plant Tabs
 Rating:
4/5 (4 votes)
Song To The Siren lessons Tabs too difficult? Try these video lessons and learn fast
1
                -------------------------------------------------------------------------------
-------------------------------------------------------------------------------

Tuning: EADGBE

Verse:
A           E
Long afloat on shipless oceans
G           A
I did all my best to smile
A                 E
'Til your singing eyes and fingers
G             A
Drew me loving to your isle

Chorus:
A
Sail to me
E
Sail to me
G      A
Let me enfold you
A
Here I am
E
Here I am
G          A
Waiting to hold you

Verse:
Did I dream you dreamed about me?
Were you Hare when I was fox?
Now my foolish boat is leaning
Broken lovelorn on your rocks

Chorus:
Touch me not, touch me not,
Oh, come back tomorrow;
Oh my heart, oh my heart
Shies from the sorrow

Solo:
e|---------------------------------------------------------------------------|
B|-------------8\9-9-9-9-9-9-7-7---------------------------------------------|
G|-6-7-9-6-7-9------------------7-7------------------------------------------|
D|----------------------------------7-7-9-11-11-9-7-------7------------------|
A|--------------------------------------------------9-7-9--------------------|
E|---------------------------------------------------------------------------|

Verse:
I am puzzled as a newborn baby
I am troubled as the tide
Should I stand amidst the breakers?
Or should I lie with Death my bride?

Chorus:
Swim to me
Swim to me
Oh, come let me enfold you
Here I am
Here I am
Waiting to hold you

| /  slide up
| \  slide down
| B  hammer-on
| p  pull-off
| ~  vibrato
| +  harmonic
| x  Mute note
===============================================================================
            
Submit corrections

comments powered by Disqus
↑ Back to top | Robert Plant Chords for Song To The Siren. Lyrics for acoustic guitar and electric guitar. 1 Tablatures and chords are parodies/interpretations of the original songs. You may use it for private study, scholarship, research or language learning purposes only