» » »

Satan Your Kingdom Must Come Down Chords (ver.1)

Artists:  A B C D E F G H I J K L M N O P Q R S T U V W X Y Z # 

Satan Your Kingdom Must Come Down Chords (ver.1)

Robert Plant
Rating:
0/5 (0 votes)

Hard to play? Try these video lessons and learn fast.
                Popularised by "Boss" opening credits.
Follow me on Twitter: @ZakAkiraGibson

        Am      Em      Am
e --------------------55-5---------------------|
B ---5-----558s1o755----8-555-------5h6p5------|
G --5-54---------------------75----5-----------|
D 77----7----------------------7-77------75----|
A oo---------------------------------------7---|
E ---------------------------------------------|

 Am
Satan, your kingdom must come down
 Am
Satan, your kingdom must come down
 Am
I heard the voice of Jesus Christ
 Am     Em      Am
Satan, your kingdom must come down

        Am
e -----------|
B ---5h65----|
G --5----75--|
D 77-------7-|
A 00---------|
E -----------|

 Am
Gonna pray until they tear your kingdom down
 Am
Gonna pray until they tear your kingdom down

(the little the riff in-between these two lines)

        Am
e -----------|
B -----------|
G -----------|
D -----------|
A 8757-------|
E -----------|

 Am
I heard the voice of Jesus Christ
Am      Em      Am
Satan, your kingdom must come down

        Am      Em      Am
e ----------------------------------------------------|
B ---56p5-5--5h65--------1o1o8s1o5555--------5h65-----|
G --5----7-------75454---------------75-----5----75---|
D 77------------------57---------------7--77-------7--|
A ----------------------------------------------------|
E ----------------------------------------------------|

 Am
 They'll shout until they tear your kingdom down
 Am
They'll shout until they tear your kingdom down
 Am
 I heard the voice of Jesus Christ,
 Am     Em      Am
"Satan, your kingdom must come down"

 Am     Em      Am
e ----------------5---------55-5-----------------|
B ---56p5------555-85655h6-5--8-5555-------------|
G --5----5----------------7---------75-----54----|
D 77------777-------------------------7--77---57-|
A 00-----------------------------------------7---|
E -----------------------------------------------|
            
Hard to play? Try these video lessons and learn fast. | Correct




comments powered by Disqus
↑ Back to top | Tablatures and chords are parodies/interpretations of the original songs. You may use it for private study, scholarship, research or language learning purposes only