» » »

Robert Plant, In The Mood Tabs (ver.1)

Artists:  A B C D E F G H I J K L M N O P Q R S T U V W X Y Z # 

In The Mood Tabs (ver.1)

Robert Plant Tabs
 Rating:
4.3/5 (6 votes)
In The Mood lessons Tabs too difficult? Try these video lessons and learn fast
                
Track:  In the Mood


   3x                                 3x
E||3---7\--3-------|----------------||3---7\--3-------|
B||3---8\--3-------|----------------||3---8\--3-------|
G||4---0---0-------|----------------||4---0---0-------|
D||----------------|----------------||----------------|
A||----------------|----------------||----------------|
E||----------------|----------------||----------------|
   1 . 2 . 3 . 4 .  1 . 2 . 3 . 4 .   1 . 2 . 3 . 4 .  


|--0-------------|--------------------|------------------||
|--8-------------|--------------------|------------------||
|--0-------------|------0---------0---|------0-----------||
|----------------|0p2-0-----0p2-0-----|0p2-0-------------||
|----------------|--------------------|------------------||
|----------------|--------------------|------------------||
 1 . 2 . 3 . 4 .  1   . 2 . 3   . 4 .  1   . 2 . 3 . 4 .  


|3---7\--3-------|5---3-----------|
|3---8\--3-------|5---3-----------|
|4---0---0-------|0---0-----------|
|----------------|----------------|
|----------------|----------------|
|----------------|----------------|
 1 . 2 . 3 . 4 .  1 . 2 . 3 . 4 .    

                      I'm in the..

                                                    
 
  Solo
  3x
||------------------------------------------------|
||--------------------------------------13-12-11--|
||3--/7--\5--/12--\10----------12-11-10-----------|
||--------------------12-11-10--------------------|
||------------------------------------------------|
||------------------------------------------------|

 
|----------------------15-13h15p13----17v---||
|-------------------15-------------15-------||
|--14p15-14p15-14---------------------14v---||
|--15----15----15---------------------------||
|-------------------------------------------||
|-------------------------------------------||



|15-16-17b18-17-15-13------------------------------------|
|---------------------17-15-13---------------------------|
|------------------------------15-13-12------------------|
|---------------------------------------15\13-12-10------|
|---------------------------------------------------13-12|
|--------------------------------------------------------|
 


|---------------------------------------------------|
|-----------------------------------9-11-11b13-11-9-|
|----8-10------------7-8b10-10--8/10----------------|
|-/10-----10-8---/10--------------------------------|
|--------------8------------------------------------|
|---------------------------------------------------|
 

|-----------------------------------------10----------------13v--|
|---8h9p8---/11-11h9p11---11b13-11-9-13b15----15r13-13-11--------|
|/10-----10------------10---------------------------------10-----|
|----------------------------------------------------------------|
|----------------------------------------------------------------|
|----------------------------------------------------------------|


|13p12p10--------|
|---------13p12v-|
|----------------|
|----------------|
|----------------|
|----------------|
            
Submit corrections

comments powered by Disqus
↑ Back to top | Robert Plant Tabs for In The Mood. Lyrics for acoustic guitar and electric guitar. Tablatures and chords are parodies/interpretations of the original songs. You may use it for private study, scholarship, research or language learning purposes only