» » »

Robert Palmer, Bad Case Of Lovin You Bass tabs (ver.1)

Artists:  A B C D E F G H I J K L M N O P Q R S T U V W X Y Z # 

Bad Case Of Lovin You Bass tabs (ver.1)

Robert Palmer Tabs
 Rating:
4/5 (4 votes)
Bad Case Of Lovin You lessons Tabs too difficult? Try these video lessons and learn fast
                
BAD CSE OF LOVIN’ YOU (ROBERT PALMER) BASS TAB

Intro:
   E
G|--------------------------------|--------------------------------|
D|--------------------------------|--------------------------------|
A|--------------------------------|--------------------------------|
E|0-------0---0---0---0---0---0---|0---0---0---0---0---0---0---0---|

G|--------------------------------|--------------------------------|
D|--------------------------------|----------------5---------------|
A|--------------------------------|--------5---7-------7---5-------|
E|0---0---0---0---0---0---0---0-5h|7---7-----------------------3---|

Verse 1
    E              x4   A              B                  E              x2
G|--------------------|--------------------------------|------------------|
D|*------------------*|--------------------------------|*----------------*|
A|*------------------*|--------------------------------|*----------------*|
E|--0-0-0-0-0-0-0-0---|-5-5-5-5-5-5-5-5-7-7-7-7-7-7-7-7|--0-0-0-0-0-0-0-0-|

(…Doctor doctor…)
           E    A                             E               B   
G|---|---|------|----------------------------------------------------------|
D|---|---|------|-----------------------------------------------------------|
A|---|---|------|---------------------------7-7-7-7-7-7-7-7-----------------|
E|-0-|-0-|-0000-|-5-5-5-5-5-5-5-5-5-5-5-5-5-5-5-------------7-7-7-7-7-7-7-7-|

Verse 2 (same) with: 	G|--19---19---19-|
		D|----18---18----|
		A|---------------|
		E|---------------|
Chorus
Guitar Solo
   A                              A#    B                          A#     
G|-----------------------------------|---------------------------------|
D|-----------------------------------|---------------------------------|
A|-----------------------------------|---------------------------------|
E|-5-5-5-5-5-5-5-5-5-5-5-5-5-5-5-6-6-|-7-7-7-7-7-7-7-7-7-7-7-7-7-7-6-6-|

   A                              E                              A
G|------------------------------|----------------------9-7-------------------|
D|-------------------------5----|---------------------9---9-8-7--------------|
A|----------------------5-7-7-5-|-7-7-7-7-7-7-7-7-7-10-----------------------|
E|-5-5-5-5-5-5-5-5-5-5-7--------|------------------------------5-5-5-5-5-5-5-|

Middle 8
    C#              B                               B
G|-----------------|----------------------------------------------------------|
D|-----------------|----------------------------------------------------------|
A|-4-4-4-4-4-4-4-4-|----------------------------------------------------------|
E|-----------------|-7-7-7-7-7-7-7-7-7-7-7-7-7-7-7-7-/19-19-19-19-19-19-19-19-|

   E              x3
G|------------------|
D|*----------------*|
A|*----------------*|
E|-0-0-0-0-0-0-0-0--|

Verse 3
Chorus
            
Submit corrections

comments powered by Disqus
↑ Back to top | Robert Palmer Bass for Bad Case Of Lovin You. Lyrics for acoustic guitar and electric guitar. Tablatures and chords are parodies/interpretations of the original songs. You may use it for private study, scholarship, research or language learning purposes only