» » »

Robbie Williams, Postcard Tabs (ver.1)

Artists:  A B C D E F G H I J K L M N O P Q R S T U V W X Y Z # 

Postcard Tabs (ver.1)

Robbie Williams Tabs
 Rating:
4/5 (4 votes)
Postcard lessons Tabs too difficult? Try these video lessons and learn fast
                -------------------------------------------------------------------------------
-------------------------------------------------------------------------------


Tuning: Standard, use capo on 6th fret

  Em(sus4)

|-------------------0----------------------------------------------|
|-------------0----------------0-----------------------------------|
|--------2p0--------------2p0--------------------------------------| x 2
|-----2----------2-----2----------2--------------------------------|
|------------------------------------------------------------------|
|--0---------------------------------------------------------------|


  Em              G                 C           Am

|------------------------------------------------------------------|
|-----------0-----------------------1-----1-----1-----0h1p0--------|
|--------0--------------0------------------------------------2-----|
|-----2--------------0----------0------2-----0-----2------------3--|
|--------------------------0h2------3-----2-----0------------------|
|--0-----------2--3------------------------------------------------|

  Em              G                Am             Em

|------------------------------------------------------------------|
|--0--------0----------------------1--------1-----0----------------|
|--------0--------------0----------------2--------------0--0--2----|
|-----2--------------0----------0-----2--------2-----2-------------|
|--------------------------0h2-----0-------------------------------|
|--0-----------2--3-------------------------------0--------0--2----|

   G                                     D/F#

|----------------------------------------------------------------------|
|--0h3-----3-----1-----1-----1-----1-----3--------3-----3--------3-----|
|----------------------------------------------2--------------2--------|
|-------0-----0-----2-----0-----2-----0-----0--------0-----0--------0--|
|----------------3-----2-----0-----------------------------------------|
|--3-------------------------------3-----2--------------2--------------|

 Em              G                Am

|-----------------------------------------------------------------|
|--0--------0----------------------1--------1---------------------|
|--------0--------------0----------------2------------------------|
|-----2--------------0----------0-----2--------2------------------|
|--------------------------0h2-----0------------------------------|
|--0-----------2--3-----------------------------------------------|

 Em(sus4)

|-------------------0---------------------------------------------|
|-------------0----------------0----------------------------------|
|--------2p0--------------2p0-------------------------------------| x 2
|-----2----------2-----2----------2-------------------------------|
|-----------------------------------------------------------------|
|--0--------------------------------------------------------------|

   Fsus2          C                          Am

|-----------------------------------------------------------------|
|--1--------1-----1--------1-----1-----1-----1--------1-----------|
|--------0--------------0--------------------------2--------------|
|-----3--------3-----2--------2-----2-----0-----2--------2--------|
|-----------------3--------------3-----2-----0--------------------|
|--1--------------------------------------------------------------|

   D/F#                          G     D/F#

|-----------------------------------------------------------------|
|--3--------3-----3--------3-----3-----3--------------------------|
|--------2--------------2--------------2--------------------------|
|-----0--------0-----0--------0-----0-----0-----------------------|
|-----------------------------------------------------------------|
|--2--------------2--------------3-----2--------------------------|

 Em(sus4)

|-------------------0---------------------------------------------|
|-------------0----------------0----------------------------------|
|--------2p0--------------2p0-------------------------------------| x 2
|-----2----------2-----2----------2-------------------------------|
|-----------------------------------------------------------------|
|--0--------------------------------------------------------------|

The song continues the same way till the end. Have fun! :)
            
Submit corrections

comments powered by Disqus
↑ Back to top | Robbie Williams Tabs for Postcard. Lyrics for acoustic guitar and electric guitar. Tablatures and chords are parodies/interpretations of the original songs. You may use it for private study, scholarship, research or language learning purposes only