>
 >
Nan's Song

Nan's Song Guitar Tabs

Robbie Williams - Nan's Song chords, tabs, tablatures, lyrics

Guitar lessons | Add/correct | Request | Top 50 tabs Artists:  A B C D E F G H I J K L M N O P Q R S T U V W X Y Z 0-9

Nan's Song Guitar Tabs – Robbie Williams

CD, Sheet music, Poster

Do you like Nan's Song? Share with your friends now
ChordsTabs
This should be perfect, as I have gone over it again and again. This is a
beautiful song, and really enjoyable to play! And problems, queries, etc?

   INTRO:
   e|--------2----------0----------3------------|
   b|--------3----------2----------3------------|
   g|--------2----------2----------0------------|
   d|---0----4----------2----------0------------|
   a|--------0----0-----0----2-----2------------|
   e|--------0----------0----------3------------|
            D/Db        A          G

   VERSES:
   e|-2----------2--------0----------0----------3----------|
   b|-3----------3--------2----------3----------3----------|
   g|-2----------2--------2----------0----------0----------|
   d|-0----------4--------2----------2----------0----------|
   a|-0----------0--------0----------2----------2----------|
   e|-0----------0--------0----------0----------3----------|
      D        D/Db       A          Em7        G

   CHORUS:
   e|-3----------2--------0-------0------0-----------------|
   b|-3----------3--------1-------1------3-----------------|
   g|-0----------2--------0-------0------0-----------------|
   d|-0----------0--------2-------2------2-----------------|
   a|-2----------0--------3-------3------2-----------------|
   e|-3----------0--------0-------3------0-----------------|
      G          D        C      C/G     A        



   


   MIDDLE 8:
   e|-2----------0----------0---------2--------2------------|
   b|-3----------2----------0---------2--------2------------|
   g|-4----------2----------0---------2--------3------------|
   d|-4----------2----------2---------4--------4------------|
   a|-2----------0----------2---------4--------4------------|
   e|-2----------0----------0---------2--------2------------|
      Bm         A         Em        F#m       F#        
 

Intro

Verse 1:
       D         D/Db            A             Em7                G
You said when you die that you’d walk with me every day.
       D       D/Db            A               Em7                G    
Then I start to cry and say please don’t talk that way.
        D           D/Db           A   		      Em7         G
With a blink of an eye the lord came and asked you to leave.
        D          D/Db           A              Em7              G         
You went to a better place but it stole you away from me.
    D  D/Db   A      Em7   G
And now she lives in heaven
     D   D/Db    A    Em7.
But I know they let her out.

To take care of me 

Chorus:
G		         D     G	        D
There’s a strange kind of light, caressing me tonight.
G	            D 		C	    C/G	          A
Pray silence my fear; she is near, bringing heaven down here.


Intro

Verse 2:
I miss your love, I miss your touch, but I’m feeling you every day.
And I can almost hear you say ‘You’ve come a long way baby’.
And now you live in heaven.
But I know they let you out.

To take care of me

Chorus:
There’s a strange kind of light, in my bedroom tonight.
 Pray silence my fear; she is near, bringing heaven down here.


Middle 8:
Bm			      A        Em          F#m – F#
You taught me kings and queens, whilst stroking my head.
Bm		      A	    Em	       F#m – F#
And in my darkest dark, I know you are there.
Bm                    A	 Em  		F#m – F#
Leaning down besides me, whispering my prayers.


Chorus:
There’s a strange kind of light, caressing me tonight.
Pray silence my fear; she is near, bringing heaven down here.

G			 D       G              D
The next time that we meet, I will bow at her feet. 
G			   D	           C – C/G	               A	
You’ll say ‘Wasn’t life sweet when we were there, to take heaven down there!’

Intro 


   e|--------2-------0-----3-----------|
   b|--------3-------2-----3-----------|
   g|--------2-------2-----0-----------|
   d|---0----4-------2-----0-----------|
   a|--------0---0---0--2--2-----------|
   e|--------0-------0-----3-----------|
            D/Db     A     G


   e|------2-------0--------0----------|
   b|------3-------2--------3----------|
   g|------2-------2--------0----------|
   d|--0---4-------2--------2----------|
   a|------0---0---0----2---2----------|
   e|------0-------0--------0----------|
          D/Db     A        Em7





Comments


Popular Robbie Williams tabs & chords
Better Man 1 Chords
Better Man 2 Chords
Go Gentle 2 Chords
Jesus In A Camper Van Acustic Chords
Kids 1 Chords
Not Like The Others Chords
Postcard Chords
Something Beautiful Tabs
Let Love Be Your Energy Ukulele
Misunderstood Ukulele


Song lyrics



↑ Back to top | Tablatures and chords are parodies/interpretations of the original songs. You may use it for private study, scholarship, research or language learning purposes only
© 2014 AZChords.com Contact us | Privacy policy | DMCA | Add/correct tabs | Request tabs | Top 50 tabs