>
 >
Me And My Monkey

Me And My Monkey Bass Tabs

Robbie Williams - Me And My Monkey chords, tabs, tablatures, lyrics

Guitar lessons | Add/correct | Request | Top 50 tabs Artists:  A B C D E F G H I J K L M N O P Q R S T U V W X Y Z 0-9

Me And My Monkey Bass Tabs – Robbie Williams

CD, Sheet music, Poster

Do you like Me And My Monkey? Share with your friends now
Bass TabsChordsChords v2TabsUkulele
Bassist: Phil Spalding
Tuning: Standard

Intro: 

A|x-15\-|


G|----------------------------------------------------------------|
D|----------------------------------------------------------------|
A|3-3333333-333333----------------1-1111111-1111----------------12|
E|----------------1-1111111-111111--------------134-4444444-4444--|

G|----------------------------------------------------------------|
D|-------------------------------------------------------------65-|
A|3-3333333-333333----------------1-1111111-111111-----------36---|
E|----------------1-1111111-111111----------------4-4444444-4----4|

Verse: [0:31]

G|----------------|----------------|----------------|----------------|
D|----------------|----------------|----------------|----------------|
A|3--333-33--333-3|----------------|1--111-11--111--|---------------1|
E|----------------|1--111-11--111-1|---------------1|4--444-44--444--|

G|----------------|----------------|----------------|----------------|
D|----------------|3--333-33--333-3|----------------|----------------|
A|3--333-33--333-3|----------------|1--111-11--111--|---------------1|
E|----------------|----------------|---------------1|4--444-44--444--|

G|----------------|----------------|----------------|----------------|
D|----------------|----------------|----------------|----------------|
A|3--333-33--333-3|----------------|1--111-11--111--|----------------|
E|----------------|1--111-11--111-1|---------------1|4--444-44-444444|

Pre-chorus: [1:18]

G|-----------------------------------------------|
D|-------5--.--------5-----------3--.--------3---|
A|---3-5----5----3-5----.----1-3----3----1-3---.-|
E|3-----------3---------3-1-----------1--------1-|

G|-------------------------------------------------|
D|-------5--.--------5------------3-.--------------|
A|---3-5----5----3-5---5-----1-3----3--------------|
E|3-----------3---------3-1-----------1--3-4-3-1-2-|

G|-----------------------------------------------|
D|-------5--.--------5-----------3--.--------3---|
A|---3-5----5----3-5----.----1-3----3----1-3---.-|
E|3-----------3---------3-1-----------1--------1-|

G|-------------------------------------------------------|
D|-------5--.--------5-----------------5-5-5-5-5-5-------|
A|---3-5----5----3-5----.-2--2-2-3-4-5-------------5---5-|
E|3-----------3---------3----------------------------3---|

Chorus: [1:49]

G|----------------------------------------------------------------|
D|---------------------------------------------------------5533-5-|
A|3-3333333-333333----------------1-1111111-111111-------------6--|
E|----------------1-1111111-111111----------------4-4444444------6|

G|----------------------------------------------------------------|
D|----------------------------------------------------------------|
A|3-3333333-333333----------------1-1111111-111111----------------|
E|----------------1-1111111-111111----------------4-4444444-444431|

Verse: [2:20]

G|----------------|----------------|----------------|----------------|
D|----------------|----------------|----------------|----------------|
A|3--333-33--333-3|----------------|1--111-11--111-1|--------------/6|
E|----------------|1--111-11--111-1|----------------|4--444-44--444--|

G|----------------|----------------|----------------|----------------|
D|----------------|----------------|----------------|----------------|
A|3--333-33--333-3|----------------|1--111-11--111-1|----------------|
E|----------------|1--111-11--111-1|----------------|4--444-44-444313|

G|----------------|----------------|----------------|----------------|
D|----------------|3--333-33--333-3|----------------|----------------|
A|3--333-33--333-3|----------------|1--111-11--111-1|----------------|
E|----------------|----------------|----------------|4--444-44-444444|

G|----------------|----------------|----------------|----------------------|
D|----------------|----------------|----------------|----------------------|
A|3--333-33--333-3|----------------|1--111-11--111-1|-----------6/11111111\|
E|----------------|1--111-11--111-1|----------------|4-444444444-----------|

Pre-chorus: [3:22]

G|----------------------------------------------------|
D|-------5--.---------5-------------3-.---------------|
A|---3-5----5-----3-5----.-----1-3----3---------------|
E|3------------3---------3--1------------1--3-4-3-1-2-|

G|-----------------------------------------------------|
D|-------5--.---------5-------------3-----3------------|
A|---3-5----5-----3-5---5------1-3----1-3----3-3-------|
E|3------------3----------3-1--------------------1-1-2-|

G|----------------------------------------------------|
D|-------5--.---------5-------------3-.---------3-----|
A|---3-5----5-----3-5---5------1-3----3-----1-3---3---|
E|3------------3----------3-1------------1----------1-|
-
G|------------------------------------------7-7-7-7-12-------|
D|-------5--.---------5--3-5--5-5-7-8-9-9-9------------12-12-|
A|---3-5----5-----3-5----------------------------------------|
E|3------------3---------------------------------------------|

Chorus: [3:52]

G|----------------|----------------|----------------|----------------|
D|----------------|----------------|----------------|---------665535-|
A|3--333-33--333-3|---------------3|1--111-11--111-1|----------------|
E|----------------|1--111-11--1134-|----------------|4--444-44------6|

G|----------------|----------------|----------------|---------------------|
D|----------------|----------------|----------------|-----------------10~-|
A|33-333-33--333-3|----------------|1--111-11--111--|---------------------|
E|----------------|1--111-11--111-1|---------------1|4--444-44-44/16\-----|

No bass till [4:55]

Verse:

G|5--555-55--555-5|----------------|3--333-33--333-3|----------------|
D|----------------|3--333-33--333-3|----------------|6--666-66--666-6|
A|----------------|----------------|----------------|----------------|
E|----------------|----------------|----------------|----------------|

G|----------------|----------------|----------------|----------------------|
D|----------------|----------------|----------------|----------------------|
A|3--333-33--333-3|----------------|1--111-11--111-1|------------/11111111\|
E|----------------|1--111-11--111-1|----------------|4--444444444----------|

Pre-chorus: [5:26]

G|----------------------------------------------------|
D|-------5--.---------5------------3--.---------3-----|
A|---3-5----5-----3-5----.-----1-3----3-----1-3---3---|
E|3------------3---------3--1------------1----------1-|

G|----------------------------------------------------|
D|-------5--.---------5------------3--.---------3-3-4-|
A|---3-5----5-----3-5---5------1-3----3-----1-3-------|
E|3------------3----------3-1------------1------------|

G|----------------------------------------------------|
D|5--------------------5-----------3--.---------------|
A|--5--------------3-5---.-----1-3----3---------------|
E|----6-5-3-3--1-3-------3--1------------1--0-1-0-1-2-|

G|----------------------------------------------------------------|
D|-------5--.---------5--.----------------------------------------|
A|---3-5----5-----3-5----5----------------/10-10-10-10-10-10-10-\-|
E|3------------3-----------3-3-3-3-3-3-3-3------------------------|

Chorus: [5:56]

G|----------------|----------------|----------------|-----------------|
D|----------------|----------------|----------------|-----------------|
A|3--333-33--333--|---------------3|1--111-11--111-1|---------------1-|
E|--------------33|1--111-11--1134-|----------------|4--444-4-3-1-4---|

G|----------------|----------------|----------------|-----------------------|
D|--------------5-|3-33333-3-3-333-|----------------|-----------------------|
A|3--333-33-3333-3|-------3---3---3|1-1-111-1-1-11--|---------/11111111--11\|
E|----------------|----------------|---1---1---1--13|4-4444444---------11---|

Ending: [6:27]

G|----------------|----------------|----33----------|----------------|
D|----------------|----------------|-------3--------|-----------66---|
A|3--333-13--1331-|---3---3---3--32|1--1----1---11-1|----66-6-66--6-6|
E|---------------3|1---11--1---11--|-----------1----|4--4----4-----4-|

G|----------------|----------------|----------------|------------------|
D|----------------|----------------|---3---3---3----|--6---6-6655335-5-|
A|3---33--3---33--|---3---3---3---3|1---11--1---11--|---46--4----------|
E|---3---3---3--33|1---11--1---134-|---------------1|4-----------------|

G|----------------|
D|--------v-------|
A|3~----/15~------|
E|----------------|

v  vibrato
x  dead note
/  slide up
\  slide down
h  hammer-on
p  pull-off
~  let ring





Comments


Popular Robbie Williams tabs & chords
Angels Bass Tabs
Karma Killer Bass Tabs
Be A Boy 2 Chords
Better Man 3 Chords
I Will Talk And Hollywood Will Listen Chords
Shame 3 Chords
Shes The One 1 Chords
The Road To Mandalay Tabs
Love Somebody Ukulele
Stand Your Ground Ukulele


Song lyrics



↑ Back to top | Tablatures and chords are parodies/interpretations of the original songs. You may use it for private study, scholarship, research or language learning purposes only
© 2014 AZChords.com Contact us | Privacy policy | DMCA | Add/correct tabs | Request tabs | Top 50 tabs