» » »

Make Me Pure Tabs (ver.1)

Artists:  A B C D E F G H I J K L M N O P Q R S T U V W X Y Z # 

Make Me Pure Tabs (ver.1)

Robbie Williams
Rating:
0/5 (0 votes)

Hard to play? Try these video lessons and learn fast.
                Basically, you just need to listen to the song and follow along so that you can get the 
strumming pattern.


INTRO  E          AE?
e|-------------------------------------|
B|-------------------------------------|
G|-----1---1---1--2-2-2-2-2-2-2--------|
D|-----2---2---2--2-2-2-2-2-2-2--------|
A|-----2---2---2--2-2-2-2-2-2-2--------|
E|-------------------------------------|

VERSE
       E              AE?
e|-----------------------------|
B|-----------------------------|
G|-----1--------------2--------|
D|-----2--------------2--------|
A|-----2--------------2--------|
E|-----------------------------|
  So I sing a song... To real em' in

       A                         E
e|-------------------------------------|
B|-------------------------------------|
G|-----2-------------------------1-----|
D|-----2-------------------------2-----|
A|-----2-------------------------2-----|
E|-------------------------------------|
  It's a song I sang before... and a song I'm going to sing again
        B
e|------x-------------------------------|
B|------4------------------------2------|
G|----- 4------------------------2------|
D|------4------------------------2------|
A|------2-------------------------------|
E|------0-------------------------------|
  Oh lord... make me pure - but not yet


VERSES 2-7:

Tell a joke
Tell it twice
If no-one else is laughing then why am I
I split my sides both times and laugh till I cry
Oh Lord, please make me pure
- but not yet

I don't have to try
I just dial it in
I've never found a job that for me was worth bothering
I got a ton of selfish genes and lazy bones
Beneath this skin
Oh Lord, make me pure
- but not yet

Smoking kills
Sex sells
I've got one hand in my pocket but the other one looks cool as hell
I know I'm gonna die so my revenge is living well

Oh Lord, make me pure - but not yet
I stopped praying
So I hope this song will do
I wrote it all for you
I'm not perfect but you don't mind that, do you?
I know you're there to pull me through, aren't you?

So I look for love
I like the search
And I'll be standing for election all across the known universe
Every president gets the country she deserves
Oh Lord, make me pure
- but not yet

And I've been seeing
Somebody's wife
She said she'd leave him for me and I said that wasn't wise
You can't lie to a liar because of all lies
Oh Lord, please make me pure
- not yet
            
Hard to play? Try these video lessons and learn fast. | Correct




comments powered by Disqus
↑ Back to top | Tablatures and chords are parodies/interpretations of the original songs. You may use it for private study, scholarship, research or language learning purposes only