>
 >
Love Somebody

Love Somebody Guitar Tabs

Robbie Williams - Love Somebody chords, tabs, tablatures, lyrics

Guitar lessons | Add/correct | Request | Top 50 tabs Artists:  A B C D E F G H I J K L M N O P Q R S T U V W X Y Z 0-9

Love Somebody Guitar Tabs – Robbie Williams

CD, Sheet music, Poster

Do you like Love Somebody? Share with your friends now
ChordsChords v2TabsUkulele
    ___________________
   / Robbie Williams  /  What an amazing and amazingly huge song this is!
  / Love Somebody    /  Here's some treat guitar parts for the guitarist :)
 / Escapology       /
/__________________/


For the Intro + Verse I have made a guitar arrangement, which is pretty
close to the piano part (but will obviously never sound that good):

Intro:

  Em                Em7               Em6               C
|-7---7---7---7---|10--10--10--10---|-9---9---9---9---|-8---8---8---8---|
|-8---8---8---8---|12--12--12--12---|-8---8---8---8---|-8---8---8---8---|
|-9---9---9-----9-|-9---9---9-----9-|-9---9---9-----9-|-9---9---9-----9-|
|-----------------|-----------------|-----------------|-----------------|
|-----------------|-----------------|-----------------|-----------------|
|-----------------|-----------------|-----------------|-----------------|

                  |-----------------|-----------------|
            that  |-----------.-----|-----------------|
           guitar |-------/4--2-0-.-|-----------------|
            fill  |---------------2-|-0h2-------------|
                  |-----------------|-----------------|
                  |-----------------|-----------------|


Verse:

  Em                Bm/E              C                 G       B
|-7---7---7---7---|10--10--10--10---|-8---8---8---8---|-8-7-----7-------|
|-8---8---8---8---|12--12--12--12---|-8---8---8---8---|-8---8---7-------|
|-9---9---9-------|11--11--11--11---|-9---9---9-----9-|-7-----7-8-------|
|-----------------|-----------------|-----------------|-----------------|
|--------------<7>|-----------------|-----------------|-----------------|
|-----------------|-----------------|-----------------|-----------------|
              (Let that harmonic ring through the Bm.)

  Em                Em7               C                 G       D
|-7---7---7---7---|10--10--10--10---|-8---8---8---8---|-8-7-5---5-------|
|-8---8---8---8---|12--12--12--12---|-8---8---8---8---|-x-----8-7-------|
|-9---9---9-----9-|-9---9---9-----9-|-9---9---9---9---|-7-------7-------|
|-----------------|-----------------|-----------------|-5-------0-------|
|-----------------|-----------------|-----------------|-----------------|
|-----------------|-----------------|-----------------|-----------------|




For the Pre-Chorus + Chorus I have notated chord suggestions.
Strum these chords freely.

Pre-Chorus:

  D11               D                 D11               B7sus4  B7
|-3---------------|-2---------------|-3---------------|-2-------2-------|
|-5---------------|-3---------------|-5---------------|-5-------4-------|
|-5---------------|-2---------------|-5---------------|-2-------2-------|
|-0---------------|-0---------------|-0---------------|-4-------4-------|
|-----------------|-----------------|-----------------|-2-------2-------|
|-----------------|-----------------|-----------------|-----------------|

 guitar part (slight overdrive, panned right)
|-----------3-----|-------2---------|-----------3-----|-----------------|
|-------1-------1-|-----3-----------|-------1-------1-|-0---------------|
|-----2-----------|---2-------------|-----2-----------|-----2-----------|
|---0-------------|-0---------------|---0-------------|---------1-------|
|-----------------|-----------------|-----------------|-----------------|
|-----------------|-----------------|-----------------|-----------------|



Chorus:
(same thing as "It'll come in your sweet time, Lord")

  Em      B/F#      E/G#    Am        Em/B    Am6/C     F#7/A#  B7
|-0-------2-------|-4-------5-------|-----------------|-0-------2-------|
|-0-------4-------|-5-------5-------|-8-------7-------|-7-------0-------|
|-0-------4-------|-4-------5-------|-9-------9-------|-6-------2-------|
|-2-------4-------|-6-------7-------|-9-------7-------|-4-------1-------|
|-2-------x-------|-7-------7-------|-x-------x-------|-x-------2-------|
|-0-------2-------|-4-------5-------|-7-------8-------|-6---------------|

  Em      B/F#      E/G#    Am        Em/B    B         Esus4   E
|-0-------2-------|-4-------5-------|-----------------|-0-------0-------|
|-0-------4-------|-5-------5-------|-8-------7-------|-0-------0-------|
|-0-------4-------|-4-------5-------|-9-------8-------|-2-------1-------|
|-2-------4-------|-6-------7-------|-9-------9-------|-2-------2-------|
|-2-------x-------|-7-------7-------|-x-------x-------|-2-------2-------|
|-0-------2-------|-4-------5-------|-7-------7-------|-0-------0-------|


 guitar part (heavy overdrive, panned center)
|-----------------|-----------------|-----------------|-----------------|
|-----------------|-----------------|-----------------|-----------------|
|-----------------|-----------------|-----------------|-----------------|
|-----------------|-----------------|-----------------|-----------------|
|-----------------|---------0-------|-2-------3-------|-1-------2-------|
|-0-------2-------|-4---------------|-----------------|-----------------|

|-----------------|-----------------|-----------------|-----------------|
|-----------------|-----------------|-----------------|-----------------|
|-----------------|-----------------|-----------------|-----------------|
|-----------------|-----------------|-----------------|-----------------|
|-----------------|---------0-------|-2---------------|-----------------|
|-0-------2-------|-4---------------|-----------------|-0---------------|


This guitar part plays along from the second chorus and on.
(slight overdrive, panned right)
|-----0-----------|-----------------|-----------------|-----------------|
|---0---0-----4---|-----3-------1---|-----0-------1---|-----2-------4---|
|-----------2---2-|---4---4---2---2-|---0---0---2---2-|---3---3---4---4-|
|-2-------4-------|-2-------2-------|-2-------4-------|-4-------4-------|
|-----------------|-----------------|-----------------|-----------------|
|-----------------|-----------------|-----------------|-----------------|

|-----0-----------|-----------------|-----------------|---------0^------|
|---0---0-----4---|-----3-------1---|-----0-------0---|-----0---0^------|
|-----------2---2-|---4---4---2---2-|---0---0---2---2-|---2---2-1^------|
|-2-------4-------|-2-------2-------|-2-------1-------|-2-------2^------|
|-----------------|-----------------|-----------------|-----------------|
|-----------------|-----------------|-----------------|-----------------|



Outro:
  Em                Bm/E              Em6               C               Em(add2)
|-7---7---7---7---|10--10--10--10---|-9---9---9---9---|-8---8---8---8---|--0---|
|-8---8---8---8---|12--12--12--12---|-8---8---8---8---|-8---8---8---8---|--8---|
|-9---9---9-------|11--11--11--11---|-9---9---9-----9-|-9---9---9---9---|-11---|
|-----------------|-----------------|-----------------|-----------------|--9---|
|--------------<7>|-----------------|-----------------|-----------------|--x---|
|-0---------------|-----------------|-----------------|-----------------|--0---|



 Song structure:

  Intro      \
              \
  Verse        \
                > 2x
  Pre-Chorus   /
              /
  Chorus     /

  "It'll come..."

  Chorus

  "It'll come..."

  Outro



+--------------------------------------------------------------------------+
Jon Sebastian Frederiksen - 16th /February /12





Comments


Popular Robbie Williams tabs & chords
Advertising Space Bass Tabs
It's Only Us Chords
Kids 2 Chords
Let Me Entertain You 4 Chords
One Of Gods Better People 1 Chords
Angels 4 Tabs
Mr Bojangles 1 Tabs
Old Before I Die Tabs
One Of God's Better People Tabs
She's The One Tabs


Song lyrics



↑ Back to top | Tablatures and chords are parodies/interpretations of the original songs. You may use it for private study, scholarship, research or language learning purposes only
© 2014 AZChords.com Contact us | Privacy policy | DMCA | Add/correct tabs | Request tabs | Top 50 tabs