>
 >
Life Thru A Lens

Life Thru A Lens Bass Tabs

Robbie Williams - Life Thru A Lens chords, tabs, tablatures, lyrics

Guitar lessons | Add/correct | Request | Top 50 tabs Artists:  A B C D E F G H I J K L M N O P Q R S T U V W X Y Z 0-9

Life Thru A Lens Bass Tabs – Robbie Williams

CD, Sheet music, Poster

Do you like Life Thru A Lens? Share with your friends now
Bass TabsChordsUkulele
Bassist: Fil Eisler
Tuning: Standard

Intro:

G|-----------------|
D|-----------------|
A|-----------------|
E|5~--5~--3~--2~---|

Verse:

G|----------------------------------------------------------------|
D|----------------------------------------------------------------|
A|55555555555555558888888888888888-------5--------5555555555------|
E|--------------------------------8888888-33333333----------223344|

G|----------------------------------------------------------------|
D|----------------------------------------------------------------|
A|55555555555555558888888888888885-------5--------555545554555455-|
E|--------------------------------8888888-33333333----------------|

Pre-chorus:

G|------------------------------------|
D|------------------------------------|
A|-----44----4-4-24------44----4-4-24-|
E|2-2-2---2---------2-2-2---2---------|

G|----------------------------------------|
D|----------------------------------------|
A|xx5-xx5-xx5-xx5-xx4-xx4/16161414121211\-|
E|----------------------------------------|

G|----------------------------------------------------|
D|----------------------------------------------------|
A|-----44----4-4-24------44---2/4-2/4-xx5-xx5-xx5-----|
E|2-2-2---2---------2-2-2---2--------------------01234|

G|----------------------------------------|
D|----------------------------------------|
A|xx5-xx5-xx5-xx5-xx4-xx4/16161414121211\-|
E|----------------------------------------|

Chorus:

G|----------------------------------------------------------------|
D|----------------------------------------------------------------|
A|------------575-------------575-------------353-----------------|
E|555555555555---7555555555555---7333333333333---52222222222225220|

G|----------------------------------------------------------------|
D|----------------------------------------------------------------|
A|------------575-------------575---------------------5~----------|
E|555555555555---7555555555555---57--\2~--0~------3~------5~------|

Verse:

G|----------------------------------------------------------------|
D|----------------------------------------------------------------|
A|55555555555555558888888888888875-------5--------555555555555----|
E|--------------------------------8888888-33333333------------2345|

G|----------------------------------------------------------------|
D|----------------------------------------------------------------|
A|55555555555555558888888888888875-------5--------555545554555454\|
E|--------------------------------8888888-33333333----------------|

Pre-chorus:

G|----------------------------------------------------|
D|----------------------------------------------------|
A|-----44----4-4-24------44---2/4-2/4-xx5-xx5-xx5-----|
E|2-2-2---2---------2-2-2---2--------------------01234|

Verse:

G|----------------------------------------------------------------|
D|----------------------------------------------------------------|
A|------------575-------------575-------------353-----------------|
E|555555555555---7555555555555---7333333333333---52222222222225220|

G|----------------------------------------------------------------|
D|----------------------------------------------------------------|
A|------------575-------------575-5-4---4---------------5~--------|
E|555555555555---7555555555555---7----7---7-5-0~---3~--------5~---|


G|--------------------------------------|
D|--------------------------------------|
A|--------------------------------------|
E|/5~-----3~-----3/15\3-1111111111111-3-|

Chorus:

G|----------------------------------------------------------------|
D|----------------------------------------------------------------|
A|------------575-------------575-----------------5555555555------|
E|555555555555---7555555555555---73333333333333333----------223344|

G|----------------------------------------------------------------|
D|----------------------------------------------------------------|
A|------------575-------------575-----------------5555455455455---|
E|555555555555---7555555555555---73333333333333333-------------234|

G|----------------------------------------------------------------|
D|----------------------------7-----------------------------------|
A|------------575----------797-97---------------------------------|
E|555555555555---7555555555------7333333333333333-1~--3~--5~------|

/  slide up
\  slide down
h  hammer-on
p  pull-off
~  let ring





Comments


Popular Robbie Williams tabs & chords
Advertising Space Bass Tabs
Bodies Intro Bass Tabs
Mr Bojangles Bass Tabs
Go Gentle 2 Chords
Into The Silence Chords
Rock Dj 1 Chords
Shes The One 4 Chords
Supreme 2 Chords
Shame Tabs
Losers Ukulele


Song lyrics



↑ Back to top | Tablatures and chords are parodies/interpretations of the original songs. You may use it for private study, scholarship, research or language learning purposes only
© 2014 AZChords.com Contact us | Privacy policy | DMCA | Add/correct tabs | Request tabs | Top 50 tabs