» » »

Handsome Man Tabs (ver.1)

Artists:  A B C D E F G H I J K L M N O P Q R S T U V W X Y Z # 

Handsome Man Tabs (ver.1)

Robbie Williams
Rating:
3/5 (4 votes)

Hard to play? Try these video lessons and learn fast.
                My first tab so please email if it is helpful to you

Robbie Williams - Handsome Man
Escapology 2002

Ace song

Intro/Verse

   Hello did you miss me
E-----------------------
B-----------------------
G-----------8--9--------
D-----------------------
A-7---777---6--7--5--7--
E-5---555---------3--5--

Bridge

Im gunna milk it.............
E------------------------
B------------------------
G------------------------
D------------------------
A--4------------7--------
E--2------------5--------

Come take a peice of meeeeee
E---------------------------
B---------------------------
G---------------------------
D--5--------------------9---
A--3--------------------7---
E---------------------------

If you drop me.......
E--------------------------------
B--------------------------------
G--7----12----11-----9---9-10--9-
D--------------------------------
A--5----10-----9-----7---7--8--7-
E--------------------------------

 ..hands b'cos you just met
E----------------------------
B----------------------------
G--5-------------------------
D------------------------7---
A--3-------------------------
E------------------------5---


...Man
E-----------------------
B-----------------------
G-----------8--9--------
D-----------------------
A-7---777---6--7--5--7--
E-5---555---------3--5--

  Give in and love it...
E------------------------
B------------------------
G------------------------
D------------------------
A--4------------7--------
E--2------------5--------

 ..Could but you'd be Wrong
E---------------------------
B---------------------------
G---------------------------
D--5--------------------9---
A--3--------------------7---
E---------------------------

If you drop me.......
E--------------------------------
B--------------------------------
G--7----12----11-----9---9-10--9-
D--------------------------------
A--5----10-----9-----7---7--8--7-
E--------------------------------

 ..hands here before you stands
E----------------------------
B----------------------------
G--5-------------------------
D------------------------7---
A--3-------------------------
E------------------------5---

  can you make me...
E------------------------------------------------
A------------------------------------------------
D------------------------------------------------
G------------------------------------------------
B-------8----------10-------12-------------------
E-------6-----------8-------10-------10--8--6--4-

..grip and grin shake and fake name and shame
E-----------------------------
B-----------------------------
G-----------------------------
D-----------------------------
A--5-----------------------7--
E--3-----------------------5--

..its not very complicated, im just drunk & overated
E---------------------------------------------------
B---------------------------------------------------
G---------------------------------------------------
D---------------------------------------------------
A--7-7-7-7-7-7-7-7-7-7-7-7--6-6-6-6-6-6-6-6-6-6-6-6-
E--9-9-9-9-9-9-9-9-9-9-9-9--8-8-8-8-8-8-8-8-8-8-8-8-

Solo thingie

E------------------------------
B------------------------------
G--7----12----11----9---9-10-9-
D------------------------------
A--5----10----9-----7---7-8--7-
E------------------------------

E------------------------------
B------------------------------
G--7----12----14----9---9-10-9-
D------------------------------
A--5----10----12----7---7-8--7-
E------------------------------

E------------------------------
B------------------------------
G--7----12----11----9---9-10-9-
D------------------------------
A--5----10----9-----7---7-8--7-
E------------------------------

E------------------------------------------------------
B------------------------------------------------------
G--7----5----------------------------------------------
D------------7-----------------------------------------
A--5----3----------------------------------------------
E------------5------5>>>>>>>>>>>>>>>>>>>>>>>>>>>>>>>>--(run finger up string)

(key change, rest of the song is the same as before but 1 bar up)
  Please dont drop me
E---------------------------------
A---------------------------------
D--8----13----12----10---10-11-10-
G---------------------------------
B--6----11----10-----8---8--9--8--
E---------------------------------



end

E------------------------------------           ---------
B------------------------------------           ---------
G--6-6 6 6 >>>>>>>>>12-12-12-12-12---           ---------
D------------------------------------Repeat till----3----
A--4-4 4 4 >>>>>>>>>10-10-10-10-10---           ----5----
E------------------------------------           ---------
            
Hard to play? Try these video lessons and learn fast. | Correct




comments powered by Disqus
↑ Back to top | Tablatures and chords are parodies/interpretations of the original songs. You may use it for private study, scholarship, research or language learning purposes only