>
 >
Come Take Me Over

Come Take Me Over Guitar Tabs

Robbie Williams - Come Take Me Over chords, tabs, tablatures, lyrics

Guitar lessons | Add/correct | Request | Top 50 tabs Artists:  A B C D E F G H I J K L M N O P Q R S T U V W X Y Z 0-9

Come Take Me Over Guitar Tabs – Robbie Williams

CD, Sheet music, Poster

Do you like Come Take Me Over? Share with your friends now
Tabs
Robbie Williams - Come Take Me Over


Intro

  D           Dsus4  D C(add9)  G

--2--2--2--2--3--2-----------------------------------------|
--3--3--3--3--3--3---3--3--3--3----------------------------|
--2--2--2--2--2--2---0--0--0--0----------------------------|
--0--0--0--0--0--0---x--x--0--0----------------------------|
---------------------3--3--x--x----------------------------|
---------------------------3--3----------------------------|


Verse 1:  "is this a long range effort..."

   D   C   G     D   C(add9)  G

---2---0---------2-------------------------------------|
---3---1---3-----3---3---3-----------------------------|
---2---0---0-----2---0---0-----------------------------|
---0---2---0-----0---x---0-----------------------------|
-------3---2---------3---2-----------------------------|
-----------3-------------3-----------------------------|


Pre-chorus: "what I'm trying to say":

(unsure about these F chords)

  Am    C      Am     C

---------------------------------------|
--1-----1------1-----1-----------------|
--2-----0------2-----0-----------------|
--2-----2------2-----2-----------------|
--0-----3------0-----3-----------------|
---------------------------------------|


Chorus:  "come take me over!"

   G    D    C         G    D    C

---3----2----0--------------2----0---------------------|
---3----3----1---------3----3----1---------------------|
---0----2----0---------0----2----0---------------------|
---0----0----2---------0----0----2---------------------|
---2---------3---------2---------3---------------------|
---3-------------------3-------------------------------|


"love me or put me down..."

   G   C   D             C    G

---1--------------------------------------------------|
---1---1---3-------------1----3-----------------------|
---2---0---2-------------0----0-----------------------|
---3---2---0-------------2----0-----------------------|
---3---3-----------------3----2-----------------------|
---1--------------------------3-----------------------|

Verse 2:  "God send me heaven..."


---2---0---------2-------------------------------------|
---3---1---3-----3---3---3-----------------------------|
---2---0---0-----2---0---0-----------------------------|
---0---2---0-----0---x---0-----------------------------|
-------3---2---------3---2-----------------------------|
-----------3-------------3-----------------------------|


"take me to the shops..."

  D          E7                                  C

------------------------------------------------------------|
--3--3--3----0--0--0-----------------------------1----------|
--2--2--2----1--1--1-----------------------------0----------|
--0--0--0----0--0--0-----------------------------2----------|
-------------2--2--2-----------------------------3----------|
-------------0--0--0----------------------------------------|

Solo

----------------------------------------------------|
----------------------------------------------------|
-------7--9^------9^--7--7h9---9/11---7~------------|
--7h9-----------------------------------------------|
----------------------------------------------------|
----------------------------------------------------|

---------------8p7-----------------------------------------------------|
--7h10--10~---------10---10p7---7---7h10p7-----------------------------|
------------------------------------------------9--7~----7/9~----------|
-----------------------------------------------------------------------|
-----------------------------------------------------------------------|
-----------------------------------------------------------------------|


----10---10--12^-----12^p10/7----7--8/10~----|
--7----7-------------------------------------|
---------------------------------------------|
---------------------------------------------|
---------------------------------------------|
---------------------------------------------|


-------10-------8-------7--------5-----3----3h5----------------|
--5/7------5/7-----5/7------5/7-----5------------5--3---3/5~---|
---------------------------------------------------------------|
---------------------------------------------------------------|
---------------------------------------------------------------|
---------------------------------------------------------------|


Repeat Pre-chorus
Repeat Chorus

Outro:

   G   D   C

---3---2-----------------|
---3---3---1-------------|
---0---2---0-------------|
---0---0---2-------------|
---2-------3-------------|
---3---------------------|


Final Chords

   F   C   G

---1---------------------|
---1---1---3-------------|
---2---0---0-------------|
---3---2---0-------------|
---3---3---2-------------|
---1-------3-------------|





Comments


Popular Robbie Williams tabs & chords
Mack The Knife Bass Tabs
Mack The Knife 2 Bass Tabs
King Of Blokes And Birds Chords
Let Me Entertain You 6 Chords
Monsoon Chords
Sexed Up 1 Chords
Shes The One 5 Chords
Something Beautiful 1 Chords
Something Stupid Chords
The Road To Mandalay Chords


Song lyrics



↑ Back to top | Tablatures and chords are parodies/interpretations of the original songs. You may use it for private study, scholarship, research or language learning purposes only
© 2014 AZChords.com Contact us | Privacy policy | DMCA | Add/correct tabs | Request tabs | Top 50 tabs