» » »

Let My Baby Ride Tabs (ver.2)

Artists:  A B C D E F G H I J K L M N O P Q R S T U V W X Y Z # 

Let My Baby Ride Tabs (ver.2)

Rl Burnside
Rating:
0/5 (0 votes)

Tabs too difficult? Try these video lessons and learn fast.
                Main Riff

E|-----------------------------------|
B|-----------------------------------|
G|-----------7--7--7--7--------------|
D|--9--9--x--7--7--7--7--x--7--7--7--|  x4
A|--9--9--x--5--5--5--5--x--7--7--7--|
E|--7--7--x--------------x--5--5--5--|


Solo

E|--12b12b12b10--7----------7--7--10--7------7--|
B|------------------10--10---------------10-----|
G|----------------------------------------------|
D|----------------------------------------------|
A|----------------------------------------------|
E|----------------------------------------------|

E|--7--7--10--10--7--7--------------7--10--7--7-|
B|--7--7--10--10--7--7--10--10--10--7--10--7--7\|
G|----------------------9---9---9---------------|
D|----------------------------------------------|
A|----------------------------------------------|
E|----------------------------------------------|

Won't you let my Baby ride, man x4
Then continue from there.

Its in B major, so use the B pentatonic scale when doing a solo (pentatonic scale on 7th fret)

Enjoy :)
            
Tabs too difficult? Try these video lessons and learn fast.




comments powered by Disqus
↑ Back to top | Tablatures and chords are parodies/interpretations of the original songs. You may use it for private study, scholarship, research or language learning purposes only