» » »

R. Kelly, The World's Greatest Tabs (ver.2)

Artists:  A B C D E F G H I J K L M N O P Q R S T U V W X Y Z # 

The World's Greatest Tabs (ver.2)

R. Kelly Tabs
 Rating:
4/5 (4 votes)
The World's Greatest lessons Tabs too difficult? Try these video lessons and learn fast
                Hey, this really is my very first tab,
and I've done this souly by ear so please, be easy on me.
And if theres any corrections,
please notify me and I'll be sure to change it.

Oh, the way to read this, is to line the start of the lyrics with the tabs above.
Sing it like he sings is, and it should match up.
if you have any questions, contact me at..

Thank you ^.^

Chords used:

    G      Em    C     D
e|--10-----7-----3-----5---|
b|--12-----8-----5-----7---|
g|--12-----9-----5-----7---|
d|--12-----9-----5-----7---|
a|--10-----7-----3-----5---|
e|-------------------------|


Intro

   G                         Em
e|--------------------------------------------------------|
b|-------12---------12-----------8---------8--------------|
g|-------12---------12-----------9---------9--------------|
d|----12---------12------------9---------9----------------|
a|-10---------10---------9---7---------7--------9---------|
e|--------------------------------------------------------|


   G                         Em
e|--------------------------------------------------------|
b|-------12---------12-----------8---------8--------------|
g|-------12---------12-----------9---------9--------------|
d|----12---------12------------9---------9----------------|
a|-10---------10---------9---7---------7--------9---------|
e|--------------------------------------------------------|

Verse

   G                         Em
e|--------------------------------------------------------|
b|-------12---------12-----------8---------8--------------|
g|-------12---------12-----------9---------9--------------|
d|----12---------12------------9---------9----------------|
a|-10---------10---------9---7---------7--------9---------|
e|--------------------------------------------------------|
   I am a mountain
             I am a tall tree wooooah
                             I am a swift wind, sweeping the country

   G                         Em
e|--------------------------------------------------------|
b|-------12---------12-----------8---------8--------------|
g|-------12---------12-----------9---------9--------------|
d|----12---------12------------9---------9----------------|
a|-10---------10---------9---7---------7------------------|
e|--------------------------------------------------------|
   I am a river, down in the valley wooooah
              I am a vision, i can see clearly

Bridge

               C
e|-----------------------------------------------------------|
b|-------------5------------------5--------------------------|
g|-------------5------------------5--------------------------|
d|-------------5------------------5--------------------------|
a|--5---3------3------------------3--------------------------|
e|-----------------------------------------------------------|
        If anybody asks you who i am

     C                                        D
e|-----------------------------------------------------------|
b|---5----------------------------------------7--------------|
g|---5----------------------------------------7--------------|
d|---5----------------------------------------7--------------|
a|---3----------------------------------------5--------------|
e|-----------------------------------------------------------|
     Stand up tall, look him in the face and say


Chorus

I'm not sure which one sounds better, you could strum..
(listen to the song and im sure you'll get it ;])
G
  I'm that star up in the sky
Em
  I'm that mountain peak up hiiigh
C
  Hey, I made it
D
  I'm the world's greatest
G
 And I'm that little bit of hope
Em
  When my back's against the rooopes
C
 I can feel it
D
 I'm the world's greatest


Or you could pick..


e|----------------------------------------------------------------------|
b|------12------12-------8----8------5----5----7---7--------------------|
g|------12------12-------9----9------5----5----7---7--------------------|
d|-----12-------12------9-----9-----5-----5---7----7--------------------|
a|--10------10------9--7----7---5--3----3----5---5----------------------|
e|----------------------------------------------------------------------|
        Im that star up in the sky
                         Im that mountain peak up high
                                     Hey I made it
                                               Im the World's Greatest
            
Submit corrections

comments powered by Disqus
↑ Back to top | R. Kelly Tabs for The World's Greatest. Lyrics for acoustic guitar and electric guitar. Tablatures and chords are parodies/interpretations of the original songs. You may use it for private study, scholarship, research or language learning purposes only