» » »

Kisapmata Tabs (ver.1)

Artists:  A B C D E F G H I J K L M N O P Q R S T U V W X Y Z # 

Kisapmata Tabs (ver.1)

Rivermaya
Rating:
0/5 (0 votes)

Hard to play? Try these video lessons and learn fast.
                |----------5----|   <<\  
|---------------|   << \
|------7--------|   <<  this is the main preface/intro.
|----7----------|   << /
|---------------|   <</  
|---------------|   <<

After the main preface, yung bassline na muna ng D-Em-A-G.
BASS RIFF:
  |---------------------------------------------|     
  |---------------------------------------------|
  |-----------7-7-------------------------------|
  |---10-10--------5-5---0-3--------------------|
        D     Em    G     A 

Sa bassline D hanggang Em, walang filler kahit ano, bass lang talaga.
Kapag bass na ng A hanggang G, do this fillers:

FILLERS:

|---------------------------------------------|Repeat all from d’start!
|-------5------5------3-----------------------|       That’s it!
|---------------------------------------------| 
|---7------7---------------5------------------|
|---------------------------------------------|
|---------------------------------------------|

Note: Sa verse, wala nang preface. Bassline na lang at Filler. Bago magchorus,
magtatagal muna sa last chord. (G) Basically, that’s the whole song. Just play
with the filler. Scale lang ng D yun. Listen to the song. Self study na lang,
madali na yun. OK ba? -----

Now for the Chorus!

   |---------3-------------0-----------0---------3------|     
   |----3-------3------0-----0-----------2----3----2----|
   |------2------2------------0------2----2-----0----0--|
   |--0------------------3---------2--------------------|
   |-----------------2-----------0----------------------|
   |----------------------------------------3-----------| That’s all

Now repeat the intro with the preface. And go on with the verse.
Do the solos and end with the chord (G)


Any comments?
            
Hard to play? Try these video lessons and learn fast. | Correct




comments powered by Disqus
↑ Back to top | Tablatures and chords are parodies/interpretations of the original songs. You may use it for private study, scholarship, research or language learning purposes only