>
 >
Kisapmata

Kisapmata Guitar Tabs

Rivermaya - Kisapmata chords, tabs, tablatures, lyrics

Guitar lessons | Add/correct | Request | Top 50 tabs Artists:  A B C D E F G H I J K L M N O P Q R S T U V W X Y Z 0-9

Kisapmata Guitar Tabs – Rivermaya

CD, Sheet music, Poster

Do you like Kisapmata? Share with your friends now
Bass TabsBass Tabs v2ChordsTabsTabs v2Tabs v3Tabs v4Tabs v5Tabs v6Ukulele
|----------5----|   <<\  
|---------------|   << \
|------7--------|   <<  this is the main preface/intro.
|----7----------|   << /
|---------------|   <</  
|---------------|   <<

After the main preface, yung bassline na muna ng D-Em-A-G.
BASS RIFF:
  |---------------------------------------------|     
  |---------------------------------------------|
  |-----------7-7-------------------------------|
  |---10-10--------5-5---0-3--------------------|
        D     Em    G     A 

Sa bassline D hanggang Em, walang filler kahit ano, bass lang talaga.
Kapag bass na ng A hanggang G, do this fillers:

FILLERS:

|---------------------------------------------|Repeat all from dístart!
|-------5------5------3-----------------------|       Thatís it!
|---------------------------------------------| 
|---7------7---------------5------------------|
|---------------------------------------------|
|---------------------------------------------|

Note: Sa verse, wala nang preface. Bassline na lang at Filler. Bago magchorus,
magtatagal muna sa last chord. (G) Basically, thatís the whole song. Just play
with the filler. Scale lang ng D yun. Listen to the song. Self study na lang,
madali na yun. OK ba? -----

Now for the Chorus!

   |---------3-------------0-----------0---------3------|     
   |----3-------3------0-----0-----------2----3----2----|
   |------2------2------------0------2----2-----0----0--|
   |--0------------------3---------2--------------------|
   |-----------------2-----------0----------------------|
   |----------------------------------------3-----------| Thatís all

Now repeat the intro with the preface. And go on with the verse.
Do the solos and end with the chord (G)


Any comments?





Comments


Popular Rivermaya tabs & chords
Hinahanap-hanap Kita 4 Bass Tabs
Isang Bandila Bass Tabs
Panahon Na Naman Bass Tabs
20 Millionang Lupet N2 Kanata Na To Chords
Awit Ng Kabataan Chords
Gising Na Tabs
Wag Na Init Ulo Baby (Intro) Tabs
Lonely Summer Time Ukulele
Never The Bright Lights Ukulele
Piping Tom Ukulele


Song lyrics



↑ Back to top | Tablatures and chords are parodies/interpretations of the original songs. You may use it for private study, scholarship, research or language learning purposes only
© 2014 AZChords.com Contact us | Privacy policy | DMCA | Add/correct tabs | Request tabs | Top 50 tabs