» » »

Richard Marx, Right Here Waiting Tabs (ver.9)

Artists:  A B C D E F G H I J K L M N O P Q R S T U V W X Y Z # 

Right Here Waiting Tabs (ver.9)

Richard Marx Tabs
Rating:
0/5 (0 votes)
Right Here Waiting lessons Tabs too difficult? Try these video lessons and learn fast
                Right here Waiting -  Richard Marx
Yep.
This song is one of my favorite..

TUNING - Standard

I made my own version of this song, hope you'll like it.

(INTRO)

e|--------15-15-13-12-10-------10-10-12-13-12-----------|
B|--13--13--------------------0-------------------------|
G|----12---------------------0--------------------------|
D|------------------------------------------------------|
A|------------------------10----------------------------|
E|------------------------------------------------------|


e|------8-8-----10----12----10----8-------7--5--3---------|
B|--------------------------------------------------------|
G|----9-------------0----------0--------------------------|
D|--------------------------------------------------------|
A|--0--------10-----------8-----------10------------------|
E|--------------------------------------------------------|


  ( C )            ( G )          ( Am )   ( G )     ( F )         ( G )
e|-------3-3-1-0-----------0-1-0-------------------0------------------------|
B|-----1--------3------3-3-------------1-1----3---------3-=ring=-1----0-----|
G|---0----------------0-------------------------------------------------0h1-|
D|-------------------0---------------2--------------------------------------|
A|-3-------------------------------0----------------------------------------|
E|-----------------3------------------------3----3----1-------------3-------|


  ( C )           ( G )           ( Am )    ( G )
e|-------3-3-1-0-----------0-1-0---------------------1------0---------------|
B|-----1--------3------3-3--------------1-1----3------------------3---1-0-1-|
G|---0----------------0-----------------------------------------------------|
D|-------------------0---------------2--------------------------------------|
A|-3-------------------------------0----------------------------------------|
E|-----------------3-------------------------3-----3-----1-----1----3-------|



e|-----------------------| -----|
B|----------0-1----------| -----|
G|--------2-----2--------| -----| (2x)
D|------2---------2------| -----|
A|----0------------------| -----|
E|-----------------------| -----|


VERSE

CHORDS ~  C - Am - F -G

REFRAIN ~ Am - F
          Am - F - C

BRIDGE ~ Dm7 - C - F
       ~ Dm7 - C - F - G

REPEAT INTRO.

************************************

| /   slide up
| \   slide down
| h   hammer-on
| p   pull-off
| ~   vibrato
| +   harmonic
| x   Mute note
| b   Bend
| pb  Pre-bend
| br  Bend release
| pbr Pre-bend release
| brb Bend release bend

************************************


tang!online~
            

comments powered by Disqus
↑ Back to top | Richard Marx Tabs for Right Here Waiting. Lyrics for acoustic guitar and electric guitar. Tablatures and chords are parodies/interpretations of the original songs. You may use it for private study, scholarship, research or language learning purposes only