>
 >
Right Here Waiting

Right Here Waiting Guitar Tabs

Richard Marx - Right Here Waiting chords, tabs, tablatures, lyrics

Guitar lessons | Add/correct | Request | Top 50 tabs Artists:  A B C D E F G H I J K L M N O P Q R S T U V W X Y Z 0-9

Right Here Waiting Guitar Tabs – Richard Marx

CD, Sheet music, Poster

Do you like Right Here Waiting? Share with your friends now
ChordsChords v2Chords v3TabsTabs v2Tabs v3Tabs v4Tabs v5Tabs v6Tabs v7Tabs v8Tabs v9Ukulele
 

Richard Marx - Right here waiting for you

This is actualy a piano song with a little guitar solo in the middle.
But I tabbed it for guitar anyway, also involving bits and pieces of the basguitar  


Intro:
  C               Gsus4           Am            F
|-----0-3-3-1-0-------------0-1-0---------------0------------------|
|---------------3-------3-3-----------1-1---3-------3---1-0--------|
|---0-----------------0-------------------------------------2-0----|
|-------------------0---------------2-----2-------3----------------|
|-3-------------------------------0-------------------3------------|
|-----------------3------------------------------------------------|

  C               Gsus4           Am            F  
|-----0-3-3-1-0-------------0-1-0-------------0-1---0--------------|
|---------------3-------3-3-----------1-1---3---------3---1-0-1----|
|---0-----------------0--------------------------------------------|
|-------------------0---------------2-----2------------------------|
|-3-------------------------------0--------------------------------|
|-----------------3-------------------------------1-----3----------|

  Am
|--------------------------|
|-------0-1---------0-1----|
|-----2-----2-----2--------|
|---2-----------2----------|
|-0-----------0------------|
|-0------------------------|

Verse 1:
  C               F               Dm              Gsus4
|-------3---------------3---------------1-------------3-----3----|
|-----1-3-------------1-3-------------1-3-------------3-0-1-3----|
|---0---------------2---------------2---------------0------------|
|-------------------------------3-0------------------------------|
|-3--------------------------------------------------------------|
|---------------0-1-----------------------------1-3--------------|
         Oceans apart   day after day         and I slowly go insane

  C               F               Am              Gsus4            
|-------3---------------3---------------1---------------3----|
|-----1-3-------------1-3-------------1-3-------------0-3----|
|---0---------------2---------------2---------------0--------|
|-------------------------------3-0--------------------------|
|-3---------------------------------------------3-2----------|
|---------------0-1------------------------------------------|
         I hear your voice on the line,       but it doesn't stop the pain

  Am          F           Am          F                     
|-------0-0---------------------0-0---1------|
|-------0-1---------------------0-1---1------|
|-----2-----------------------2--------------|
|---2-----------------------2----------------|
|-0---------2-3-------3\0-0------------------|
|-----------------------------------0-1-3----|
         If I see you next to never, how can we say forever 

Chorus:
  C                 Gsus4         Am              F
|-------3-3-1-0-------------0-1-0---------------0--------------------|
|-----1---------3-------3-3---------1---1---3-------3---1---1--------|
|---0-----------------0---------------0---0---0---0---0---0---2-0----|
|-------------------0------------------------------------------------|
|-3-------------------------------0----------------------------------|
|-----------------3-------------------------------3------------------|
        Wherever you go, whatever you do 
                                    I will be right her waiting for you 

  C                 Gsus4         Am              F 
|-------3-3-1-0-------------0-1-0-----------0---1---0----------------|
|-----1---------3-------3-3-----------1-3---------------3---1-0-1----|
|---0-----------------0-------------2-----0---0---0---0---0----------|
|-------------------0------------------------------------------------|
|-3-------------------------------0----------------------------------|
|-----------------3-------------------------------3------------------|
        Whatever it takes or how my heart breaks, 
                                    I will be right her waiting for you

  Am        
|----------------------------|
|-------0-1---------0-1------|
|-----2-----2-----2-----2----|
|---2-----------2------------|
|-0-----------0--------------|
|-0--------------------------|

Verse 2:
  C               F               Dm              Gsus4
|-------3---------------3---------------1-------------3-----3----|
|-----1-3-------------1-3-------------1-3-------------3-0-1-3----|
|---0---------------2---------------2---------------0------------|
|-------------------------------3-0------------------------------|
|-3--------------------------------------------------------------|
|---------------0-1-----------------------------1-3--------------|
         I took for granted all the times     that I thought would last somehow

  C               F               Am              Gsus4
|-------3---------------3---------------1---------------3----|
|-----1-3-------------1-3-------------1-3-------------0-3----|
|---0---------------2---------------2---------------0--------|
|-------------------------------3-0--------------------------|
|-3---------------------------------------------3-2----------|
|---------------0-1------------------------------------------|
         I hear the laughter, I taste the tears, but I can't get near you know

  Am          F           Am          F 
|-------0-0---1-----------------0-----1------|
|-------0-1---1-----------------1-1---1------|
|-----2-----------------------2---2----------|
|---2-----------------------2----------------|
|-0---------2-3-------3\0-0------------------|
|-----------------------------------0-1-3----|
         Oh can't you see it baby, you got me going crazy

Chorus:
  C               Gsus4           Am              F 
|-------3-3-1-0-------------0-1-0---------------0--------------------|
|-----1---------3-------3-3---------1---1---3-------3---1---1--------|
|---0-----------------0---------------0---0---0---0---0---0---2-0----|
|-------------------0------------------------------------------------|
|-3-------------------------------0----------------------------------|
|-----------------3-------------------------------3------------------|
        Wherever you go, whatever you do 
                                    I will be right her waiting for you        

  C               Gsus4           Am              F            
|-------3-3-1-0-------------0-1-0-----------0---1---0----------------|
|-----1---------3-------3-3-----------1-3---------------3---1-0-1----|
|---0-----------------0-------------2-----0---0---0---0---0----------|
|-------------------0------------------------------------------------|
|-3-------------------------------0----------------------------------|
|-----------------3-------------------------------3------------------|
        Whatever it takes or how my heart breaks, 
                                    I will be right her waiting for you

Bridge:
  Dm7       C         F
|-1---1---3-0---0-----1-----1-1-0-1-3----|
|-2---2-----1---1-----1-----1-1-1-1-1----|
|-2---2---0-0---0-----2-2-2-2-2-2-2-2----|
|-0-0-0-0---2---2-----3-3-2-3-3-3-3-1----|
|-0---0-----3-3-3-----3-3-3--------------|
|-----------------0-0-1-1-1--------------|
        I wonder how we can survive this romance

  Dm7       C         F         Gsus4
|-1---1---3-0---0-----1-----1-1-3-3-3-3-3----|
|-2---2-----1---1-----1-----1-1-3-3-3-3------|
|-2-2-2---0-0---0-----2---2-2-2-0-0-0-0------|
|-0---0-0---2---2-----3-3-3-3-3-0-0-0-0------|
|-0---0-----3-3-3-----3---3-3-3-2-2-2-2------|
|-----------------0-0-1---1-----3-3-3-3------|
        But in the end if I'm with you I'll take my chance

Solo:
  C          Gsus4       Am          F 
|-3-3-1-0---------------------------------------|
|---------3--3-3-5-5/6-5-1-1-3-3/5-3-1-0--------|
|------------------------2-2-0-----------2-0----|
|-----------------------------------------------|
|-----------------------------------------------|
|-----------------------------------------------|

  C          Gsus4       Am          F          
|-3-3-1-0----------------------3/5-3-1-0---0----|
|---5-3-1-3--3-3-5-5/6-5-1-1-3-5/6-5-3-1-3-1----|
|---------4--4-4-5-5h7-5---2-------------4------|
|-----------------------------------------------|
|-----------------------------------------------|
|-----------------------------------------------|


  Am          F           Am          F
|-------0-0---1-----------------0-0---1------|
|-------0-1---1-----------------0-1---1------|
|-----2-----------------------2--------------|
|---2-----------------------2----------------|
|-0---------2-3-------3\0-0------------------|
|-----------------------------------0-1-3----|
         Oh can't you see it baby, you got me going crazy 

Chorus:
  C               Gsus4           Am              F
|-------3-3-1-0-------------0-1-0---------------0--------------------|
|-----1---------3-------3-3---------1---1---3-------3---1---1--------|
|---0-----------------0---------------0---0---0---0---0---0---2-0----|
|-------------------0------------------------------------------------|
|-3-------------------------------0----------------------------------|
|-----------------3-------------------------------3------------------|
        Wherever you go, whatever you do 
                                    I will be right her waiting for you
  C               Gsus4           Am            F   
|-------3-3-1-0-------------0-1-0-----------0---5--3--1--0---0----|
|-----1---------3-------3-3-----------1-3-------6--5--3--1-3-1----|
|---0-----------------0-------------2-----0---0------------4------|
|-------------------0---------------------------------------------|
|-3-------------------------------0-------------------------------|
|-----------------3-----------------------------------------------|
        Whatever it takes or how my heart breaks, 
                                    I will be right her waiting for you

Outro:
  C               Gsus4         Am              F
|-------3-3-1-0-----------0-1-0-----5-----0----------------|
|-----1---------3---0-3-3---------5---1-3-----3-1-0--------|
|---0-------------0-------------2-------------------2-0----|
|-------------------------------------------3--------------|
|-3--------------------------------------------------------|
|----------------------------------------------------------|

  C                Gsus4         Am          F
|-------3-3-1-0---------------------------------------|
|-----1---------3--3-3-5-5/6-5-1-3-5-5/6-5-3----------|
|---0----------------------------------------5-4-5----|
|-----------------------------------------------------|
|-3---------------------------------------------------|
|-----------------------------------------------------|





Comments


Popular Richard Marx tabs & chords
Colonics Commercial Chords
Right Here Waiting For You Chords
Thanks To You Chords
When You Loved Me Chords
Hazard 2 Tabs
Now And Forever Tabs
Take This Heart Intro Tabs
Take This Heart Intro 1 Tabs
Cant Help Falling In Love Ukulele
Right Here Waiting For You Ukulele


Song lyrics



↑ Back to top | Tablatures and chords are parodies/interpretations of the original songs. You may use it for private study, scholarship, research or language learning purposes only
© 2014 AZChords.com Contact us | Privacy policy | DMCA | Add/correct tabs | Request tabs | Top 50 tabs