» » »

Richard Marx, Right Here Waiting Tabs (ver.4)

Artists:  A B C D E F G H I J K L M N O P Q R S T U V W X Y Z # 

Right Here Waiting Tabs (ver.4)

Richard Marx Tabs
 Rating:
4/5 (8 votes)
Right Here Waiting lessons Tabs too difficult? Try these video lessons and learn fast
                -------------------------------------------------------------------------------
                             RIGHT HERE WAITING - Richard Marx
-------------------------------------------------------------------------------

Tuning: Standard

e|--15--15--13--12--------------------12--13--12~--------------12------------|
B|-------------------15~------15--15-------------------13--15------15--13----|
G|---------------------------------------------------------------------------|
D|---------------------------------------------------------------------------|
A|---------------------------------------------------------------------------|
E|---------------------------------------------------------------------------|

e|-----------------3--3--1--0------------0--1--0-----------0--1--0-----------|
B|--12-------------------------3~--3--3--------------1--3-----------3--1-----|
G|------14--12~--------------------------------------------------------------|
D|---------------------------------------------------------------------------|
A|---------------------------------------------------------------------------|
E|---------------------------------------------------------------------------|

e|---------------------------------------------------------------------------|
B|--0--1~--------------------------------------------------------------------|
G|---------------------------------------------------------------------------|
D|---------------------------------------------------------------------------|
A|---------------------------------------------------------------------------|
E|---------------------------------------------------------------------------|

Csus2    Csus2/F          Dm7add4
Oceans apart day after day 
      Gsus4  G   Csus2
And I slowly go insane
            Csus2/F      Dm7add4 
I hear your voice on the line
       G/B               Am 
But it doesn't stop the pain

 
Am              Fsus2/D     Am
If I see you next to never 
Am        Fsus2/D  Fsus2/G 
How can we say forever 


  C         G
Wherever you go 
  G         Am
Whatever you do
  Am           F        G       C
I will be right here waiting for you 
  C          G
Whatever it takes 
  G            Am
Or how my heart breaks 
Am          F          G         Am
I will be right here waiting for you 


Csus2    Csus2/F          Dm7add4
I took for granted, all the times
        Gsus4         G       Csus2 
That I thought would last somehow 
            Csus2/F        Dm7add4 
I hear the laughter, I taste the tears 
       G/B               Am 
But I can't get near you now
 
Am           Fsus2/D     Am
Oh, can't you see it baby 
Am        Fsus2/D  Fsus2/G
You've got me goin' crazy 

[Chorus]

Fsus2    C/E             Fadd2
I wonder how we can survive 
Fadd2
This romance 
Fsus2/D    C/E            Fadd2
But in the end if I'm with you 
Fadd2          Gsus4  G/B
I'll take the chance 

[Chorus]

Am           Fsus2/D     Am
Oh, can't you see it baby 
Am        Fsus2/D  Fsus2/G
You've got me goin' crazy 

[Chorus]


| /  slide up
| \  slide down
| h  hammer-on
| p  pull-off
| ~  vibrato
| +  harmonic
| x  Mute note
===============================================================================
            
Submit corrections

comments powered by Disqus
↑ Back to top | Richard Marx Tabs for Right Here Waiting. Lyrics for acoustic guitar and electric guitar. Tablatures and chords are parodies/interpretations of the original songs. You may use it for private study, scholarship, research or language learning purposes only