>
 >
Now And Forever 1

Now And Forever 1 Guitar Tabs

Richard Marx - Now And Forever 1 chords, tabs, tablatures, lyrics

Guitar lessons | Add/correct | Request | Top 50 tabs Artists:  A B C D E F G H I J K L M N O P Q R S T U V W X Y Z 0-9

Now And Forever 1 Guitar Tabs – Richard Marx

CD, Sheet music, Poster

Do you like Now And Forever 1? Share with your friends now
ChordsChords v2Chords v3Chords v4TabsTabs v2Tabs v3Tabs v4Ukulele
-------------------------------------------------------------------------------
                             NOW AND FOREVER - Richard Marx
-------------------------------------------------------------------------------
h = hammer on
/ = slide up to fret

INTRO:

E |----------3------|------------------|----------3--|---------------|
B |--0--------------|--0h1---1/3---1---|-------------|------1h0------|
G |-----------------|------------------|------0------|------------0--|
D |------0----------|--0h2---2/4---2---|--2----------|--2------------|
A |-----------------|------------------|-------------|---------------|
E |--3-----------3--|------------------|-------------|---------------|

                                    End of intro:
E |----------3------|------------------|----------3--|---------------|
B |--0--------------|--0h1---1/3---1---|-------------|------1--------|
G |-----------------|------------------|------0------|----------0----|
D |------0----------|--0h2---2/4---2---|--2----------|--2------------|
A |-----------------|------------------|-------------|---------------|
E |--3-----------3--|------------------|-------------|---------------|

Verse 1:
E |----------3------|-----------------|--------------0--|-------------|
B |--0--------------|----------3------|--------------0--|----------0--|
G |-----------------|------2-------2--|--------------0--|------0------|
D |------0----------|-----------------|----------2------|--2----------|
A |-----------------|-----------------|------2----------|-------------|
E |--3-----------3--|--2--------------|--0--------------|-------------|

E |-----------------|-----------------|-----------------|--0--------------|
B |----------1------|--------------0--|----------3------|----------3------|
G |--------------2--|----------2------|------2-------2--|--------------2--|
D |------2----------|------0----------|-----------------|-----------------|
A |--0--------------|-----------------|-----------------|-----------------|
E |-----------------|--3--------------|--2--------------|------2----------|


E |----------3------|-----------------|--------------0--|-------------|
B |--0--------------|----------3------|--------------0--|----------0--|
G |-----------------|------2-------2--|--------------0--|------0------|
D |------0----------|-----------------|----------2------|--2----------|
A |-----------------|-----------------|------2----------|-------------|
E |--3-----------3--|--2--------------|--0--------------|-------------|


E |-----------------|-----------------|-----------------|--0--------------|
B |----------1------|--------------0--|----------3------|----------3------|
G |--------------2--|----------2------|------2-------2--|--------------2--|
D |------2----------|------0----------|-----------------|-----------------|
A |--0--------------|-----------------|-----------------|-----------------|
E |-----------------|--3--------------|--2--------------|------2----------|


E |--------------0--|-----------------|--------------2--|-----------------|
B |-----------------|----------1------|-----------------|----------0------|
G |----------0------|-----------------|----------2------|--------------2--|
D |------2----------|------2----------|------1----------|------1----------|
A |--3--------------|--3-----------0--|--2--------------|--2--------------|
E |-----------------|-----------------|-----------------|-----------------|


E |----------0------|----------2------|--------------0--|-----------------|
B |----------0------|----------3------|--------------0--|-----------------|
G |------0-------0--|------2-------2--|----------0------|-----------------|
D |-----------------|--0--------------|------2----------|-----------------|
A |-----------------|-----------------|--4--------------|-----------------|
E |--0--------------|-----------------|-----------------|-----------------|


E |--------------0--|---------------|----------3------|--2----------|
B |--------------1--|------1h0------|----------3------|--3----------|
G |----------2------|------------0--|------2-------2--|-------------|
D |------2----------|---------------|--0--------------|-------------|
A |--0--------------|--0------------|-----------------|-------------|
E |-----------------|---------------|-----------------|-------------|

Intro to verse 2:
E |----------3------|------------------|----------3--|---------------|
B |--0--------------|--0h1---1/3---1---|-------------|------1--------|
G |-----------------|------------------|------0------|----------0----|
D |------0----------|--0h2---2/4---2---|--2----------|--2------------|
A |-----------------|------------------|-------------|---------------|
E |--3-----------3--|------------------|-------------|---------------|

Verse 2:
E |----------3------|-----------------|--------------0--|-------------|
B |--0--------------|----------3------|--------------0--|----------0--|
G |-----------------|------2-------2--|--------------0--|------0------|
D |------0----------|-----------------|----------2------|--2----------|
A |-----------------|-----------------|------2----------|-------------|
E |--3-----------3--|--2--------------|--0--------------|-------------|


E |-----------------|-----------------|-----------------|--0--------------|
B |----------1------|--------------0--|----------3------|----------3------|
G |--------------2--|----------2------|------2-------2--|--------------2--|
D |------2----------|------0----------|-----------------|-----------------|
A |--0--------------|-----------------|-----------------|-----------------|
E |-----------------|--3--------------|--2--------------|------2----------|


E |----------3------|-----------------|--------------0--|-------------|
B |--0--------------|----------3------|--------------0--|----------0--|
G |-----------------|------2-------2--|--------------0--|------0------|
D |------0----------|-----------------|----------2------|--2----------|
A |-----------------|-----------------|------2----------|-------------|
E |--3-----------3--|--2--------------|--0--------------|-------------|


E |-----------------|-----------------|-----------------|--0--------------|
B |----------1------|--------------0--|----------3------|----------3------|
G |--------------2--|----------2------|------2-------2--|--------------2--|
D |------2----------|------0----------|-----------------|-----------------|
A |--0--------------|-----------------|-----------------|-----------------|
E |-----------------|--3--------------|--2--------------|------2----------|


E |--------------0--|-----------------|--------------2--|-----------------|
B |-----------------|----------1------|-----------------|----------0------|
G |----------0------|-----------------|----------2------|--------------2--|
D |------2----------|------2----------|------1----------|------1----------|
A |--3--------------|--3-----------0--|--2--------------|--2--------------|
E |-----------------|-----------------|-----------------|-----------------|


E |----------0------|----------2------|--------------0--|-----------------|
B |----------0------|----------3------|--------------0--|-----------------|
G |------0-------0--|------2-------2--|----------0------|-----------------|
D |-----------------|--0--------------|------2----------|-----------------|
A |-----------------|-----------------|--4--------------|-----------------|
E |--0--------------|-----------------|-----------------|-----------------|


E |--------------0--|---------------|----------3------|--2----------|
B |--------------1--|------1h0------|----------3------|--3----------|
G |----------2------|------------0--|------2-------2--|-------------|
D |------2----------|---------------|--0--------------|-------------|
A |--0--------------|--0------------|-----------------|-------------|
E |-----------------|---------------|-----------------|-------------|

Intro to interlude 1:
E |----------3------|------------------|----------3--|----------2------|
B |--0--------------|--0h1---1/3---1---|-------------|--------------0--|
G |-----------------|------------------|------0------|------2----------|
D |------0----------|--0h2---2/4---2---|--2----------|-----------------|
A |-----------------|------------------|-------------|--2--------------|
E |--3-----------3--|------------------|-------------|-----------------|

Interlude 1:
E |----------0------|----------0------|----------3------|----------0h2------|
B |----------0------|----------1------|----------0------|----------0--------|
G |------0-------0--|------0-------0--|------0-------0--|-------------------|
D |-----------------|-----------------|-----------------|------2---------2--|
A |-----------------|--3--------------|-----------------|-------------------|
E |--0--------------|-----------------|--3--------------|--2----------------|


E |----------0------|----------0------|----------3------|----------0h2------|
B |----------0------|----------1------|----------0------|----------0--------|
G |------0-------0--|------0-------0--|------0-------0--|-------------------|
D |-----------------|-----------------|-----------------|------2---------2--|
A |-----------------|--3--------------|-----------------|-------------------|
E |--0--------------|-----------------|--3--------------|--2----------------|


E |----------0------|----------0------|----------3------|----------0------|
B |----------0------|----------1------|----------0------|----------0------|
G |------0-------0--|------0-------0--|------0-------0--|-----------------|
D |-----------------|-----------------|-----------------|------2-------2--|
A |-----------------|--3--------------|-----------------|-----------------|
E |--0--------------|-----------------|--3--------------|--2--------------|

                      End of interlude 1:
E |----------------3--|-----------------|--3--------------|-----------------|
B |----------0h1------|-----------------|----------4------|-----------------|
G |-------------------|-----------------|-----------------|--5--------------|
D |------2------------|-----------------|-----------------|----------5------|
A |--0----------------|-----------------|------3-------3--|------3-------3--|
E |-------------------|-----------------|-----------------|-----------------|


Solo:
E|-------------------|--------------|-----------|-------------|-------------|
B|-------------------|--------------|-----------|-------------|--1----1h3h1-|
G|--0---------0h2h0--|-------0---2--|--2/4----4-|----4-5-2-4--|-------------|
D|-------------------|--4-----------|-----------|-------------|-------------|
A|-------------------|--------------|-----------|-------------|-------------|
E|-------------------|--------------|-----------|-------------|-------------|


E|---------|-----|-----------------|------3-------|------2---2h3h2-|--0---7-|                     
B|--0------|-----|------------0-3--|--0--------0--|----------------|--------|     
G|------0--|--2--|--------0-2------|--------------|--2-------------|--------|     
D|---------|-----|--0h2-4----------|--------------|----------------|--------|       
A|---------|-----|-----------------|--------------|----------------|--------|           
E|---------|-----|-----------------|--------------|----------------|--------|           

                                                  End of solo:
E|-0-7/8---7/8-7--|-----7---------|--------------|----------|--5-3-2-0------|
B|----------------|--10---8-------|----8-8-------|--8/10----|----------3-1-0|
G|----------------|------------7--|--7--------7--|----------|---------------|
D|----------------|---------------|--------------|----------|---------------|
A|----------------|---------------|--------------|----------|---------------|
E|----------------|---------------|--------------|----------|---------------|


E |--------------0--|-----------------|--------------2--|-----------------|
B |-----------------|----------1------|-----------------|----------0------|
G |----------0------|-----------------|----------2------|--------------2--|
D |------2----------|------2----------|------1----------|------1----------|
A |--3--------------|--3-----------0--|--2--------------|--2--------------|
E |-----------------|-----------------|-----------------|-----------------|


E |----------0------|----------2------|--------------0--|-----------------|
B |----------0------|----------3------|--------------0--|-----------------|
G |------0-------0--|------2-------2--|----------0------|-----------------|
D |-----------------|--0--------------|------2----------|-----------------|
A |-----------------|-----------------|--4--------------|-----------------|
E |--0--------------|-----------------|-----------------|-----------------|


E |--------------0--|---------------|----------3------|--2----------|
B |--------------1--|------1h0------|----------3------|--3----------|
G |----------2------|------------0--|------2-------2--|-------------|
D |------2----------|---------------|--0--------------|-------------|
A |--0--------------|--0------------|-----------------|-------------|
E |-----------------|---------------|-----------------|-------------|


E |----------3------|------------------|----------3--|--3--------------|
B |--0--------------|--0h1---1/3---1---|-------------|------1----------|
G |-----------------|------------------|------0------|----------0------|
D |------0----------|--0h2---2/4---2---|--2----------|--------------2--|
A |-----------------|------------------|-------------|-----------------|
E |--3-----------3--|------------------|-------------|-----------------|


E |-----------------|---------------|----------3------|--3-------2------|
B |--------------1--|------1h0------|----------3------|--3-------3------|
G |----------2------|------------0--|------2-------2--|------2-------2--|
D |------2----------|---------------|--0--------------|-----------------|
A |--0--------------|--0------------|-----------------|-----------------|
E |-----------------|---------------|-----------------|-----------------|


E|--0h2--------------|--2---------------|-----------------|--0-------------|
B|--3---------3------|------3-----------|----------1------|----------1-----|
G|--------2-------2--|----------2-------|------0-------0--|--------------0-|
D|-------------------|--------------0---|-----------------|----------------|
A|-------------------|------------------|--3--------------|------3---------|
E|-------------------|------------------|-----------------|----------------|


E|--3-----------|----------------|---------3-----|-----------|------------3-|
B|-------4------|----------------|--0------------|--1---1/3--|---------0----|
G|--------------|-5--------------|---------------|-----------|-----0--------|
D|--------------|---------5------|------0--------|--2---2/4--|--------------|
A|----3------3--|-----3-------3--|---------------|-----------|--------------|
E|--------------|----------------|--3---------3--|-----------|--3-----------|





Comments


Popular Richard Marx tabs & chords
Nothin' Left To Say Chords
Now And Forever Chords
Now And Forever 2 Chords
Shouldve Known Better Chords
Thanks To You Chords
Now And Forever Tabs
Shouldve Known Better Tabs
Now And Forever Ukulele
Right Here Waiting Ukulele
Shouldve Known Better Ukulele


Song lyrics



↑ Back to top | Tablatures and chords are parodies/interpretations of the original songs. You may use it for private study, scholarship, research or language learning purposes only
© 2014 AZChords.com Contact us | Privacy policy | DMCA | Add/correct tabs | Request tabs | Top 50 tabs