» » »

Reveille, What You Got Tabs (ver.2)

Artists:  A B C D E F G H I J K L M N O P Q R S T U V W X Y Z # 

What You Got Tabs (ver.2)

Reveille Tabs
Rating:
0/5 (0 votes)
What You Got lessons Tabs too difficult? Try these video lessons and learn fast
                REVEILLE: BLEED THE SKY
WHAT YOU GOT

Tuning: Drop D Down 1/2 Step (Db Ab Db Gb Bb Eb) 

h=hammer on
/=slide
x=mute
pm=palm mute

Riff 1: 
Eb||---||
Bb||---|| 
Gb||-2-|| 
Db||-0-|| 
Ab||-0-|| 
Db||-0-|| 

Riff 2: 
Eb||-------------------------||
Bb||-------------------------||
Gb||-------------------------||
Db||-0h3-3-3-3/6-6-6-0-x-0-x-||
Ab||-0h3-3-3-3/6-6-6-0-x-0-x-||
Db||-0h3-3-3-3/6-6-6-0-x-0-x-||
     pm - - - - - - - - - - -

Riff 3: 
Eb||-------------------------------||
Bb||-------------------------------|| 
Gb||-------------------------------|| 
Db||-0h3-3-3-3/6-6-6/7-7-7\6-6-6-6-||
Ab||-0h3-3-3-3/6-6-6/7-7-7\6-6-6-6-|| 
Db||-0h3-3-3-3/6-6-6/7-7-7\6-6-6-6-|| 
     pm - - - - - - - - - - - - - -

Riff 4: 
Eb||-----------------------------------------||
Bb||-----------------------------------------||
Gb||-----------------------------------------||
Db||-12-12-12-12-12-12-12-12-5-5-5-5-6-6-6-6-|| 
Ab||-12-12-12-12-12-12-12-12-5-5-5-5-6-6-6-6-|| 
Db||-12-12-12-12-12-12-12-12-5-5-5-5-6-6-6-6-||

Riff 5: 
Eb||-------------------------||
Bb||-------------------------||
Gb||-------------------------||
Db||-0--0--0h5-5-5-5-6-6-6-6-|| 
Ab||-0--0--0h5-5-5-5-6-6-6-6-|| 
Db||-0--0--0h5-5-5-5-6-6-6-6-|| 
     pm - - - - - - - - -  - 

Riff 6: 
Eb||----------||
Bb||----------||
Gb||----------|| 
Db||-0--0--0--|| 
Ab||-0--0--0--|| 
Db||-0--0--0--|| 
     pm - - -

Riff 7: (w/ flanger and reverb) 
Eb||-------------------------------------------------------------------------||
Bb||-------------------------------------------------------------------------|| 
Gb||-777-888-777-888-777-888-777-888-----------------------------------------||
Db||-------------------------------------------------------------------------|| 
Ab||-----------------------------------------555-666-555-666-555-666-555-666-||
Db||-------------------------------------------------------------------------||

Riff 8: (w/ flanger and reverb) 
Eb||-----------------------------------------------------------------||
Bb||-----------------------------------------------------------------|| 
Gb||-777-888-777-888-777-888-777-888-777-888-777-888-777-888-777-888-||
Db||-xxx-xxx-xxx-xxx-xxx-xxx-xxx-xxx-xxx-xxx-xxx-xxx-xxx-xxx-xxx-xxx-||
Ab||-555-666-555-666-555-666-555-666-555-666-555-666-555-666-555-666-||
Db||-----------------------------------------------------------------||

Riff 9: 
Eb||-------------||
Bb||-------------||
Gb||--------3----|| 
Db||-0--0-0-1----|| 
Ab||-0--0-0-1----|| 
Db||-0--0-0-1----||

Riff 10: 
Eb||-------------------------------------------|| 
Bb||-------------------------------------------||
Gb||-------------------------------------------||
Db||-12-12-12-12-12-12-12-12-5-5-5-5-6-6-6-6-0-|| 
Ab||-12-12-12-12-12-12-12-12-5-5-5-5-6-6-6-6-0-|| 
Db||-12-12-12-12-12-12-12-12-5-5-5-5-6-6-6-6-0-||
     pm - - - - - - - - - - - - - - - - - - - -
            
Submit corrections

comments powered by Disqus
↑ Back to top | Reveille Tabs for What You Got. Lyrics for acoustic guitar and electric guitar. Tablatures and chords are parodies/interpretations of the original songs. You may use it for private study, scholarship, research or language learning purposes only