>
 >
Plastic

Plastic Guitar Tabs

Reveille - Plastic chords, tabs, tablatures, lyrics

Guitar lessons | Add/correct | Request | Top 50 tabs Artists:  A B C D E F G H I J K L M N O P Q R S T U V W X Y Z 0-9

Plastic Guitar Tabs – Reveille

CD, Sheet music, Poster

Do you like Plastic? Share with your friends now
Tabs
Reveille

Intro
D#-------------------------------------
A#-------------------------------------
F#-------------------------------------
C#--0-0-0-0-0-12/10-0-10/9-0-9/8-0-8/7- Steve
G#--0-0-0-0-0-12/10-0-10/9-0-9/8-0-8/7-
C#--0-0-0-0-0-12/10-0-10/9-0-9/8-0-8/7-
pm. ---------       -      -     -

D#-------------------------------------
A#-------------------------------------
F#------------------------------------- Greg
C#--0-0-0-0-0--------------------------
G#--0-0-0-0-0--------------------------
C#--0-0-0-0-0--------------------------
pm. ---------




D#-----------------------------------------------
A#------------------------------------------------
F#------------------------------------------------
C#--0-0-3-3-0-0-7-7-0-10-10-0-0-3-3-0-0-6-6-0-7-7-
G#--0-0-3-3-0-0-7-7-0-10-10-0-0-3-3-0-0-6-6-0-7-7-
C#--0-0-3-3-0-0-7-7-0-10-10-0-0-3-3-0-0-6-6-0-7-7-

Verse
D#-------------------------------------------
A#------10-------9-------8-----7-------------
F#----9--------9-------9---------9-----------
C#--7--------7-------7-------7---------------
G#-------------------------------------------
C#-------------------------------------------


PreChorus
D#-------------------------
A#-------------------------
F#-------------------------
C#--0----------------------
G#--0----------------------
C#--0---12\10-0-10\9-0-9\8-
    ^let ring out

D#-------------------------------------
A#-------------------------------------
F#-------------------------------------
C#--0-0-0-0-0-12/10-0-10/9-0-9/8-0-8/7-
G#--0-0-0-0-0-12/10-0-10/9-0-9/8-0-8/7-
C#--0-0-0-0-0-12/10-0-10/9-0-9/8-0-8/7-
pm. ---------       -      -     -


Interlude

Main riff
D#------1---1--1---0---0--0-0--
A#------3---3--3---2---3--3-3--
F#------2---2--2---3---2--2-2--
C#--0---0---0--0---0---0--0-0-- 2x
G#--0--------------------------
C#--0--------------------------

D#----------5--5-5--5-5---8--8-8--8-7--8--8-8--
A#----------6--6-6--6-6---6--6-6--6-6--6--6-6--
F#------0---0--0-0--0-0---0--0-0--0-0--0--0-0--
C#--0---0---0--0-0--0-0---0--0-0--0-0--0--0-0-- 
G#--0------------------------------------------
C#--0------------------------------------------



clean lead
D#------------------------------------------------
A#-----------6---------6-5--------6-------6-5-----
F#--5h7--------5h7---------5h7------5h7-------5h7-
C#------------------------------------------------
G#------------------------------------------------
C#------------------------------------------------

D#---------------------------------------------------------------------------------
A#--6------------6------------------5-6h8-------6---------6---6h8-6---5--6h8-6---5-
F#----7--5h7-------7---5-4----4------------5h7----7--5h7----7----------------------
C#---------------------------------------------------------------------------------
G#---------------------------------------------------------------------------------
C#---------------------------------------------------------------------------------

D#--------------------------------------------------------------------------
A#----5---5-----5--------4---4-----4-------3---3-----3------/6--6---5---5---
F#--7---7-----7---7--7/9---9-----9---9---5---5-----5---5--------------7---7-
C#-------------------------------------------------------------------------- 2x
G#--------------------------------------------------------------------------
C#--------------------------------------------------------------------------


Distortion
D#--------------------------------------------------------------------------
A#----5---5-----5--------4---4-----4-------3---3-----3------/6--6---5---5---
F#--7---7-----7---7--7/9---9-----9---9---5---5-----5---5--------------7---7-
C#-------------------------------------------------------------------------- 2x
G#-------------------------------------------------------------------------- 
C#--------------------------------------------------------------------------


(the timing isn't right but you'll get the idea)
D#----------------------------------------------------------------------------
A#--10-10-10-10\8-8-8-8-8-8\6-6-6-6/10-10-10-10/12-12-12-12-12-12\8-8-8-8-8-8-
F#----------------------------------------------------------------------------
C#---------------------------------------------------------------------------- 2x
G#----------------------------------------------------------------------------
C#----------------------------------------------------------------------------


D#--------------------------
A#--10-10-10-10-10-10-10-10-
F#--------------------------
C#--------------------------
G#--------------------------
C#--------------------------

D#--------------------12----13-------------------
A#--12-10-10-13-10-10----10----10-10-13-10-10-10-
F#-----------------------------------------------
C#----------------------------------------------- 3x
G#-----------------------------------------------
C#-----------------------------------------------

D#-------------------------------------------------
A#--10-10-10-10-10-10-10-10/12-12-12-12/13-13-13-13
F#--------------------------------------------------
C#--------------------------------------------------
G#--------------------------------------------------
C#--------------------------------------------------

D#--------------------12----13-------------------
A#--12-10-10-13-10-10----10----10-10-13-10-10-10-
F#-----------------------------------------------
C#----------------------------------------------- 2x
G#-----------------------------------------------
C#-----------------------------------------------


Outro
D#---------------
A#------10---10--
F#------13---13--
C#--0-0----0-----
G#--0-0----0-----
C#--0-0----0-----
pm  ---    -

D#---------------
A#------6----6p0-
F#------6----6p0-
C#--0------0-----
G#--0------0-----
C#--0------0-----


D#---------------
A#---------------
F#---------------
C#--0-0-0-0-0----
G#--0-0-0-0-0----
C#--0-0-0-0-0----
pm  -------





Comments


Popular Reveille tabs & chords
Pheonix Bass Tabs
The Phoenix 1 Bass Tabs
Aftertaste Tabs
Catarax Tabs
Inside Out (Intro) Tabs
Killing Me Tabs
Look At Me Now Tabs
Modified Lie Tabs
Modified Lie (Intro) Tabs
What You Got 1 Tabs


Song lyrics



↑ Back to top | Tablatures and chords are parodies/interpretations of the original songs. You may use it for private study, scholarship, research or language learning purposes only
© 2014 AZChords.com Contact us | Privacy policy | DMCA | Add/correct tabs | Request tabs | Top 50 tabs