» » »

Reveille, Butterfly Tabs (ver.2)

Artists:  A B C D E F G H I J K L M N O P Q R S T U V W X Y Z # 

Butterfly Tabs (ver.2)

Reveille Tabs
 Rating:
4/5 (4 votes)
Butterfly lessons Tabs too difficult? Try these video lessons and learn fast
1
                
Intro:
E------------------------------------------
B------------------------------------------
G------------------------------------------
D-0h22222-0--0h33333-x-6-------------------
A-0h22222-0--0h33333-x-6-------------------
D-0h22222-0--0h33333-x-6-------------------


E-----------------------------------------
B-----------------------------------------
G-----------------------------------------
D-0h22222-00--33333-00--22222-00--333-x-6
A-0h22222-00--33333-00--22222-00--333-x-6
D-0h22222-00--33333-00--22222-00--333-x-6

Verse
E----------------------------------
B----------------------------------
G----------------------------------
D----------------------------------
A----------------------------------
D-6--2-3--22--5-3----6--2-3--22--5-

Chorus
E----------------------------------
B----------------------------------
G----------------------------------
D-6--2-3--22--3-3----6--2-3--22--5-
A-6--2-3--22--3-3----6--2-3--22--5-
D-6--2-3--22--5-3----6--2-3--22--5-

2nd Verse
E----------------------------------
B--8~~~~8-(8-9-8-9-8)x3------------
G----------------------------------
D----------------------------------
A----------------------------------
D----------------------------------

E------------------------------------
B------------------------------------
G------------------------------------
D------------------------------------
A------------------------------------
D-x-xx-xx-xxx-x-xx-xx-xxx-x-xx-xx-xxx

Chorus
E----------------------------------
B----------------------------------
G----------------------------------
D-6--2-3--22--3-3----6--2-3--22--5-
A-6--2-3--22--3-3----6--2-3--22--5-
D-6--2-3--22--5-3----6--2-3--22--5-

Bridge
E----------------------------------------------
B----------------------------------------------
G----------------------------------------------
D----565-0---565-0----232-0---565-0--565-0----3
A----565-0---565-0----232-0---565-0--565-0----3
D----565-0---565-0----232-0---565-0--565-0----3

E------------------------------------------------------
B------------------------------------------------------
G------------------------------------------------------
D--0--000---7-777--3-33--6-666---2-222---5--55---------
A--0--000---7-777--3-33--6-666---2-222---5--55---------
D--0--000---7-777--3-33--6-666---2-222---5--55---------

Outro:
E----------------------------------------------------------------
B----------------------------------------------------------------
G----------------------------------------------------------------
D----0--00---6-00-5-00---6--8-10----0--00---6-00-5-00--6-5-3-0
A----0--00---6-00-5-00---6--8-10----0--00---6-00-5-00--6-5-3-0
D----0--00---6-00-5-00---6--8-10----0--00---6-00-5-00--6-5-3-0
            
Submit corrections

comments powered by Disqus
↑ Back to top | Reveille Tabs for Butterfly. Lyrics for acoustic guitar and electric guitar. 1 Tablatures and chords are parodies/interpretations of the original songs. You may use it for private study, scholarship, research or language learning purposes only