» » »

Rent, Musettas Waltz Tabs (ver.1)

Artists:  A B C D E F G H I J K L M N O P Q R S T U V W X Y Z # 

Musettas Waltz Tabs (ver.1)

Rent Tabs
 Rating:
3.6/5 (7 votes)
Musettas Waltz lessons Tabs too difficult? Try these video lessons and learn fast
                Tuning:Standard

e|-8--------8-7--------7-5---5-7-8-7-5-8---------5-7-5---7-0-0---------------|
B|--------8----------8-------------------6-6---8-------8---------------------|
G|------9----------9---------------------------------------------------------|
D|---10---------10-----------------------------------------------------------|
A|---------------------------------------------------------------------------|
E|---------------------------------------------------------------------------|

e|-8--------8-7---------7-5---5-7-8-15-12-10-8-5-----------------------------|
B|--------8-----------8--------------------------5-9-0-1-1-------------------|
G|------9-----------9--------------------------------------------------------|
D|---10----------10----------------------------------------------------------|
A|---------------------------------------------------------------------------|
E|---------------------------------------------------------------------------|


Since all the others one were awful, I thought this might be a little more accurate.
                                                   -Marino

===============================================================================
            
Submit corrections

comments powered by Disqus
↑ Back to top | Rent Tabs for Musettas Waltz. Lyrics for acoustic guitar and electric guitar. Tablatures and chords are parodies/interpretations of the original songs. You may use it for private study, scholarship, research or language learning purposes only