» » »

Wolves Lower Bass tabs (ver.2)

Artists:  A B C D E F G H I J K L M N O P Q R S T U V W X Y Z # 

Wolves Lower Bass tabs (ver.2)

R.E.M.
Rating:
0/5 (0 votes)

Hard to play? Try these video lessons and learn fast.
                #

WOLVES, LOWER  (Bass Tab)


  Intro          "Suspicion yourself..."
G---------------------------------------------
D-2----0---------2-4-5-4-2------2-4-5-4-2-----
A--------2------------------2-------------2---
E---------------------------------------------


    "In a corner garden..."
G-------------------------------
D-------------------------------
A-0--0-0--4--4-4--2--2-2-----------
E------------------------2--2-2-----

    "House in order..."
G------------------------------------------------------------
D-0--0-0--2--2-2---------------0--0-0--2--2-2----------------
A----------------3--3-3-----------------------3--3-3---------
E-----------------------3--3-3-----------------------3--3-3--

  -The fast part in the middle is perfect for improvization; lots of things
   will fit well.
            
Hard to play? Try these video lessons and learn fast. | Correct




comments powered by Disqus
↑ Back to top | Tablatures and chords are parodies/interpretations of the original songs. You may use it for private study, scholarship, research or language learning purposes only