» » »

R.E.M., What's The Frequency, Kenneth? Bass tabs (ver.2)

Artists:  A B C D E F G H I J K L M N O P Q R S T U V W X Y Z # 

What's The Frequency, Kenneth? Bass tabs (ver.2)

R.E.M. Tabs
Rating:
0/5 (0 votes)
What's The Frequency, Kenneth? lessons Tabs too difficult? Try these video lessons and learn fast
                "#

"What's The Frequency Kenneth"



     intro
G:-------------------|
D:--|======4======|--|
A:-------------------|
E:-------------------|


G:---------------------------------------------------------------------------|
D:*-------------0----0-----------------------------------------0--0----2-----|
A:*--0----0--0----------0--r--2--2--0---------0--2--0----2--0-------------0--|
E:--------------------------------------3--3---------------------------------|


G:---------------------------------------------------------------------------|
D:---------------------------0---0------------------------------------0--0---|
A:-0--------------0----0--0---------0--2--2--0--------0--2--0---2--0---------|
E:-------3--3--3--------------------------------3--3-------------------------|


G:----------------------------------------------------------7----9-----------|
D:----------2--2----4--5--5--5-------5-------7---7---7-/-9-----------5----5--|
A:-0--2--2----------------------5h7-------7----------------------------------|
E:---------------------------------------------------------------------------|

                                              *Chorus
G:---------------------------------------------------------------------------|
D:--5--5--5--4-----7---7---7--5h7--5--5\-4------0--0--0h2------------0--2--4-|
A:--------------7---------------------------7--------------0--0---0----------|
E:---------------------------------------------------------------------------|


G:-0--0-------------------------------0--0-----2------2----------------------|
D:-------2----------------------2--4--------2------------5\-4--2--0----0----0|
A:------------0---0---0--0---0-----------------------------------------------|
E:---------------------------------------------------------------------------|


G:----------------------------0--0-------------------------------------------|
D:h2--------------0--0--2--4----------2--------------------------------------|
A:----0---0----0--------------------------0---0----0--0---0---0---0------0--2|
E:-------------------------------------------------------------------3-------|

              TO CODA
              3rd time
                              Guitar Solo
G:--------------------------|-----------------------------------------------|
D:--------------0----------*|*----------------0--2----------2h4--2--4--2---*|
A:--0----2--4--------------*|*--2---2---2--4--------0---0------------------*|
E:--------------------------|-----------------------------------------------|


G:---------------------------------------------------------------------------|
D:----------------0--2----------2h4--2----2----------2h4--2----2-------------|
A:--2---2---2--4--------0--0-------------------0----------------------0--2--0|
E:-----------------------------------------------------------------3---------|

           D.S. % al CODA    

G:--------------------------|
D:-----------0--------------|
A:--0--2--4-----------------|
E:--------------------------|



       _/\_ CODA
       ~\/~
G:--------------------------------------------0--0---------------------------|
D:*---0----0--0h2-----------------0--0--2--4-----------2--------------------2|
A:*-----------------0--0--0--0-0---------------------------0----0---0-0--0---|
E:---------------------------------------------------------------------------|

                                                                    
       1.,3.                          2.,4.
      |~~~~~~~~~~~~~~~~~~~~~~~~~~~~  |~~~~~~~~~~~~~~~~~~~~~~~
G:------0--0-----2-----2------------|-------------------------|-----|
D:--4---------2-----------5p4--2---*|------------------------*|-0---|
A:---------------------------------*|-------0--2--0----2--4--*|-----|
E:----------------------------------|--3----------------------|-----|
"            

comments powered by Disqus
↑ Back to top | R.E.M. Bass for What's The Frequency, Kenneth?. Lyrics for acoustic guitar and electric guitar. Tablatures and chords are parodies/interpretations of the original songs. You may use it for private study, scholarship, research or language learning purposes only